  0
SECTION
  2
HEADER
  9
$ACADVER
  1
AC1009
  9
$INSBASE
 10
0.0
 20
0.0
 30
0.0
  9
$EXTMIN
 10
-540.03295646984225
 20
-808.07240683733426
 30
-0.0015258207003583
  9
$EXTMAX
 10
540.03296149898449
 20
797.70797954204954
 30
0.0000000349246037
  9
$LIMMIN
 10
0.0
 20
0.0
  9
$LIMMAX
 10
0.0
 20
0.0
  9
$ORTHOMODE
 70
     0
  9
$REGENMODE
 70
     1
  9
$FILLMODE
 70
     1
  9
$QTEXTMODE
 70
     0
  9
$MIRRTEXT
 70
     1
  9
$DRAGMODE
 70
     2
  9
$LTSCALE
 40
30.48
  9
$OSMODE
 70
   231
  9
$ATTMODE
 70
     1
  9
$TEXTSIZE
 40
0.0
  9
$TRACEWID
 40
1.0
  9
$TEXTSTYLE
  7
STANDARD
  9
$CLAYER
  8
DATA
  9
$CELTYPE
  6
BYLAYER
  9
$CECOLOR
 62
   256
  9
$DIMSCALE
 40
1.0
  9
$DIMASZ
 40
0.18
  9
$DIMEXO
 40
0.0625
  9
$DIMDLI
 40
0.38
  9
$DIMRND
 40
0.0
  9
$DIMDLE
 40
0.0
  9
$DIMEXE
 40
0.18
  9
$DIMTP
 40
0.0
  9
$DIMTM
 40
0.0
  9
$DIMTXT
 40
0.18
  9
$DIMCEN
 40
0.09
  9
$DIMTSZ
 40
0.0
  9
$DIMTOL
 70
     0
  9
$DIMLIM
 70
     0
  9
$DIMTIH
 70
     1
  9
$DIMTOH
 70
     1
  9
$DIMSE1
 70
     0
  9
$DIMSE2
 70
     0
  9
$DIMTAD
 70
     0
  9
$DIMZIN
 70
     0
  9
$DIMBLK
  1

  9
$DIMASO
 70
     1
  9
$DIMSHO
 70
     1
  9
$DIMPOST
  1

  9
$DIMAPOST
  1

  9
$DIMALT
 70
     0
  9
$DIMALTD
 70
     2
  9
$DIMALTF
 40
25.399999999999999
  9
$DIMLFAC
 40
1.0
  9
$DIMTOFL
 70
     0
  9
$DIMTVP
 40
0.0
  9
$DIMTIX
 70
     0
  9
$DIMSOXD
 70
     0
  9
$DIMSAH
 70
     0
  9
$DIMBLK1
  1

  9
$DIMBLK2
  1

  9
$DIMSTYLE
  2
STANDARD
  9
$DIMCLRD
 70
     0
  9
$DIMCLRE
 70
     0
  9
$DIMCLRT
 70
     0
  9
$DIMTFAC
 40
1.0
  9
$DIMGAP
 40
0.09
  9
$LUNITS
 70
     2
  9
$LUPREC
 70
     4
  9
$SKETCHINC
 40
0.1
  9
$FILLETRAD
 40
0.0
  9
$AUNITS
 70
     0
  9
$AUPREC
 70
     0
  9
$MENU
  1
acad
  9
$ELEVATION
 40
0.0
  9
$PELEVATION
 40
0.0
  9
$THICKNESS
 40
0.0
  9
$LIMCHECK
 70
     0
  9
$BLIPMODE
 70
     0
  9
$CHAMFERA
 40
0.0
  9
$CHAMFERB
 40
0.0
  9
$SKPOLY
 70
     0
  9
$TDCREATE
 40
2456191.6943287039
  9
$TDUPDATE
 40
2456191.7086444101
  9
$TDINDWG
 40
0.0003787384
  9
$TDUSRTIMER
 40
0.0003785532
  9
$USRTIMER
 70
     1
  9
$ANGBASE
 50
0.0
  9
$ANGDIR
 70
     0
  9
$PDMODE
 70
     1
  9
$PDSIZE
 40
-2.0
  9
$PLINEWID
 40
0.0
  9
$COORDS
 70
     2
  9
$SPLFRAME
 70
     0
  9
$SPLINETYPE
 70
     6
  9
$SPLINESEGS
 70
     8
  9
$ATTDIA
 70
     0
  9
$ATTREQ
 70
     1
  9
$HANDLING
 70
     1
  9
$HANDSEED
  5
35E
  9
$SURFTAB1
 70
     6
  9
$SURFTAB2
 70
     6
  9
$SURFTYPE
 70
     6
  9
$SURFU
 70
     6
  9
$SURFV
 70
     6
  9
$UCSNAME
  2

  9
$UCSORG
 10
0.0
 20
0.0
 30
0.0
  9
$UCSXDIR
 10
1.0
 20
0.0
 30
0.0
  9
$UCSYDIR
 10
0.0
 20
1.0
 30
0.0
  9
$PUCSNAME
  2

  9
$PUCSORG
 10
0.0
 20
0.0
 30
0.0
  9
$PUCSXDIR
 10
1.0
 20
0.0
 30
0.0
  9
$PUCSYDIR
 10
0.0
 20
1.0
 30
0.0
  9
$USERI1
 70
     0
  9
$USERI2
 70
     0
  9
$USERI3
 70
     0
  9
$USERI4
 70
     0
  9
$USERI5
 70
     0
  9
$USERR1
 40
0.0
  9
$USERR2
 40
0.0
  9
$USERR3
 40
0.0
  9
$USERR4
 40
0.0
  9
$USERR5
 40
0.0
  9
$WORLDVIEW
 70
     1
  9
$SHADEDGE
 70
     3
  9
$SHADEDIF
 70
    70
  9
$TILEMODE
 70
     1
  9
$MAXACTVP
 70
    64
  9
$PLIMCHECK
 70
     0
  9
$PEXTMIN
 10
1.0000000000000000E+020
 20
1.0000000000000000E+020
 30
1.0000000000000000E+020
  9
$PEXTMAX
 10
-1.0000000000000000E+020
 20
-1.0000000000000000E+020
 30
-1.0000000000000000E+020
  9
$PLIMMIN
 10
0.0
 20
0.0
  9
$PLIMMAX
 10
12.0
 20
9.0
  9
$UNITMODE
 70
     0
  9
$VISRETAIN
 70
     0
  9
$PLINEGEN
 70
     1
  9
$PSLTSCALE
 70
     0
  0
ENDSEC
  0
SECTION
  2
TABLES
  0
TABLE
  2
VPORT
 70
     1
  0
VPORT
  2
*ACTIVE
 70
     0
 10
0.0
 20
0.0
 11
1.0
 21
1.0
 12
0.0000025145711788
 22
-5.1822136476423557
 13
0.0
 23
0.0
 14
1.0
 24
1.0
 15
0.0
 25
0.0
 16
0.0
 26
0.0
 36
1.0
 17
0.0
 27
0.0
 37
0.0
 40
1618.5754492190599
 41
2.227393617021276
 42
50.0
 43
0.0
 44
0.0
 50
0.0
 51
0.0
 71
     0
 72
  2000
 73
     1
 74
     1
 75
     0
 76
     0
 77
     0
 78
     0
  0
ENDTAB
  0
TABLE
  2
LTYPE
 70
    12
  0
LTYPE
  2
CONTINUOUS
 70
     0
  3
Solid line
 72
    65
 73
     0
 40
0.0
  0
LTYPE
  2
PHANTOM2
 70
     0
  3
___ _ _ ___ _ _ ___ _ _ ___ _ _
 72
    65
 73
     6
 40
1.25
 49
0.625
 49
-0.125
 49
0.125
 49
-0.125
 49
0.125
 49
-0.125
  0
LTYPE
  2
STYLE_06
 70
     0
  3

 72
    65
 73
     4
 40
1.0416412353515621
 49
0.625
 49
-0.208282470703125
 49
0.069427490234375
 49
-0.1389312744140625
  0
ENDTAB
  0
TABLE
  2
LAYER
 70
     5
  0
LAYER
  2
0
 70
     0
 62
     7
  6
CONTINUOUS
  0
LAYER
  2
DATA
 70
     0
 62
     7
  6
CONTINUOUS
  0
LAYER
  2
HIBINO-BASE
 70
     0
 62
     7
  6
CONTINUOUS
  0
LAYER
  2
SPEC
 70
     0
 62
     7
  6
CONTINUOUS
  0
LAYER
  2
DIMNSIONS
 70
     0
 62
     7
  6
CONTINUOUS
  0
ENDTAB
  0
TABLE
  2
STYLE
 70
     3
  0
STYLE
  2
STANDARD
 70
     0
 40
0.0
 41
1.0
 50
0.0
 71
     0
 42
0.0
  3
txt
  4
BIGFONT.SHX
  0
ENDTAB
  0
TABLE
  2
VIEW
 70
     0
  0
ENDTAB
  0
TABLE
  2
UCS
 70
     0
  0
ENDTAB
  0
TABLE
  2
APPID
 70
     4
  0
APPID
  2
ACAD
 70
     0
  0
APPID
  2
ACADANNOTATIVE
 70
     0
  0
APPID
  2
ACAD_NAV_VCDISPLAY
 70
     0
  0
APPID
  2
ACAD_MLEADERVER
 70
     0
  0
ENDTAB
  0
TABLE
  2
DIMSTYLE
 70
     2
  0
DIMSTYLE
  2
STANDARD
 70
     0
  3

  4

  5

  6

  7

 40
1.0
 41
0.18
 42
0.0625
 43
0.38
 44
0.18
 45
0.0
 46
0.0
 47
0.0
 48
0.0
140
0.18
141
0.09
142
0.0
143
25.399999999999999
144
1.0
145
0.0
146
1.0
147
0.09
 71
     0
 72
     0
 73
     1
 74
     1
 75
     0
 76
     0
 77
     0
 78
     0
170
     0
171
     2
172
     0
173
     0
174
     0
175
     0
176
     0
177
     0
178
     0
  0
ENDTAB
  0
ENDSEC
  0
SECTION
  2
BLOCKS
  0
BLOCK
  8
0
  2
$MODEL_SPACE
 70
     0
 10
0.0
 20
0.0
 30
0.0
  3
$MODEL_SPACE
  1

  0
ENDBLK
  5
2EA
  8
0
  0
BLOCK
 67
     1
  8
0
  2
$PAPER_SPACE
 70
     0
 10
0.0
 20
0.0
 30
0.0
  3
$PAPER_SPACE
  1

  0
ENDBLK
  5
2E6
 67
     1
  8
0
  0
ENDSEC
  0
SECTION
  2
ENTITIES
  0
LINE
  5
2C
  8
HIBINO-BASE
  6
CONTINUOUS
 62
     7
 10
-539.99999999999977
 20
797.65907500000003
 30
0.0
 11
539.99999999999977
 21
797.65907500000003
 31
0.0
  0
LINE
  5
2D
  8
HIBINO-BASE
  6
CONTINUOUS
 62
     7
 10
539.99999999999977
 20
-762.34092499999986
 30
0.0
 11
-539.99999999999977
 21
-762.34092499999986
 31
0.0
  0
LINE
  5
2E
  8
HIBINO-BASE
  6
CONTINUOUS
 62
     7
 10
-539.99999999999977
 20
-762.34092499999986
 30
0.0
 11
-539.99999999999977
 21
797.65907500000003
 31
0.0
  0
TEXT
  5
2F
  8
HIBINO-BASE
 62
     7
 10
-496.89600000000002
 20
-800.79299179999998
 30
0.0
 40
21.600265078124998
  1
Hibino Corporation
 41
0.7
 11
-496.89600000000002
 21
-779.19272672187503
 31
0.0
 73
     3
  0
LINE
  5
30
  8
HIBINO-BASE
  6
CONTINUOUS
 62
     7
 10
539.99999999999977
 20
797.65907500000003
 30
0.0
 11
539.99999999999977
 21
-762.34092499999986
 31
0.0
  0
LINE
  5
31
  8
HIBINO-BASE
  6
CONTINUOUS
 62
     7
 10
0.0
 20
-627.34092499999997
 30
0.0
 11
539.99999999999977
 21
-627.34092499999997
 31
0.0
  0
LINE
  5
32
  8
HIBINO-BASE
  6
CONTINUOUS
 62
     7
 10
0.0
 20
-762.34092499999986
 30
0.0
 11
0.0
 21
-627.34092499999997
 31
0.0
  0
TEXT
  5
33
  8
HIBINO-BASE
 62
     7
 10
5.3999999999999986
 20
-642.39308499999993
 30
0.0
 40
9.7730468749999986
  1
NOTE
 41
0.7
 11
5.4000000000000004
 21
-632.62003812499995
 31
0.0
 73
     3
  0
LINE
  5
34
  8
HIBINO-BASE
  6
CONTINUOUS
 62
     7
 10
210.0
 20
-762.34092499999986
 30
0.0
 11
210.0
 21
-627.34092499999997
 31
0.0
  0
TEXT
  5
35
  8
HIBINO-BASE
 62
     7
 10
215.40000000000001
 20
-642.39308499999993
 30
0.0
 40
9.7730468749999986
  1
TITLE
 41
0.7
 11
215.40000000000001
 21
-632.62003812499995
 31
0.0
 73
     3
  0
TEXT
  5
36
  8
HIBINO-BASE
 62
     7
 10
300.41034000000002
 20
-800.79299179999998
 30
0.0
 40
21.600265078124998
  1
ヒビノ株式会社
 41
0.7
 11
300.41034000000002
 21
-779.19272672187503
 31
0.0
 73
     3
  0
LINE
  5
37
  8
HIBINO-BASE
  6
CONTINUOUS
 62
     7
 10
0.0
 20
-702.34092499999997
 30
0.0
 11
539.99999999999977
 21
-702.34092499999997
 31
0.0
  0
TEXT
  5
38
  8
HIBINO-BASE
 62
     7
 10
290.39999999999998
 20
-717.05516499999999
 30
0.0
 40
9.7730468749999986
  1
DRAWN
 41
0.7
 11
290.39999999999998
 21
-707.28211812500001
 31
0.0
 73
     3
  0
TEXT
  5
39
  8
HIBINO-BASE
 62
     7
 10
140.39999999999989
 20
-717.05516499999999
 30
0.0
 40
9.7730468749999986
  1
DATE
 41
0.7
 11
140.39999999999989
 21
-707.28211812500001
 31
0.0
 73
     3
  0
TEXT
  5
3A
  8
HIBINO-BASE
 62
     7
 10
80.399999999999963
 20
-717.05516499999999
 30
0.0
 40
9.7730468749999986
  1
SCALE
 41
0.7
 11
80.399999999999963
 21
-707.28211812500001
 31
0.0
 73
     3
  0
TEXT
  5
3B
  8
HIBINO-BASE
 62
     7
 10
215.40000000000001
 20
-717.05516499999999
 30
0.0
 40
9.7730468749999986
  1
DESIGN
 41
0.7
 11
215.40000000000001
 21
-707.28211812500001
 31
0.0
 73
     3
  0
TEXT
  5
3C
  8
HIBINO-BASE
 62
     7
 10
440.39999999999992
 20
-717.05516499999999
 30
0.0
 40
9.7730468749999986
  1
DRAWING NO.
 41
0.7
 11
440.39999999999992
 21
-707.28211812500001
 31
0.0
 73
     3
  0
TEXT
  5
3D
  8
HIBINO-BASE
 62
     7
 10
365.39999999999998
 20
-717.05516499999999
 30
0.0
 40
9.7730468749999986
  1
CHECK
 41
0.7
 11
365.39999999999998
 21
-707.28211812500001
 31
0.0
 73
     3
  0
LINE
  5
3E
  8
HIBINO-BASE
  6
CONTINUOUS
 62
     7
 10
86.249999999999986
 20
-754.84092499999986
 30
0.0
 11
108.75
 21
-732.34092499999986
 31
0.0
  0
TEXT
  5
3F
  8
HIBINO-BASE
 62
     7
 10
82.499999999999986
 20
-738.9945849999998
 30
0.0
 40
9.7730468749999986
  1
1
 41
0.7
 11
82.499999999999986
 21
-729.22153812499982
 31
0.0
 73
     3
  0
LINE
  5
40
  8
HIBINO-BASE
  6
CONTINUOUS
 62
     7
 10
74.999999999999986
 20
-762.34092499999986
 30
0.0
 11
74.999999999999986
 21
-702.34092499999997
 31
0.0
  0
LINE
  5
41
  8
HIBINO-BASE
  6
CONTINUOUS
 62
     7
 10
134.99999999999989
 20
-762.34092499999986
 30
0.0
 11
134.99999999999989
 21
-702.34092499999997
 31
0.0
  0
LINE
  5
42
  8
HIBINO-BASE
  6
CONTINUOUS
 62
     7
 10
285.0
 20
-702.34092499999997
 30
0.0
 11
285.0
 21
-762.34092499999986
 31
0.0
  0
LINE
  5
43
  8
HIBINO-BASE
  6
CONTINUOUS
 62
     7
 10
435.0
 20
-702.34092499999997
 30
0.0
 11
435.0
 21
-762.34092499999986
 31
0.0
  0
LINE
  5
44
  8
HIBINO-BASE
  6
CONTINUOUS
 62
     7
 10
360.0
 20
-762.34092499999986
 30
0.0
 11
360.0
 21
-702.34092499999997
 31
0.0
  0
TEXT
  5
45
  8
HIBINO-BASE
 62
     7
 10
140.13924
 20
-745.15904500000011
 30
0.0
 40
9.7730468749999986
  1
'12.09.
 41
0.7
 11
140.13924
 21
-735.38599812500013
 31
0.0
 73
     3
  0
TEXT
  5
46
  8
HIBINO-BASE
 62
     7
 10
105.0
 20
-750.2445849999998
 30
0.0
 40
9.7730468749999986
  1
6
 41
0.7
 11
105.0
 21
-740.47153812499982
 31
0.0
 73
     3
  0
TEXT
  5
47
  8
HIBINO-BASE
 62
     7
 10
294.03486006620773
 20
-745.15904500000011
 30
0.0
 40
9.7730468749999986
  1
Ootake
 41
0.7
 11
294.03486006620773
 21
-735.38599812500013
 31
0.0
 73
     3
  0
TEXT
  5
48
  8
HIBINO-BASE
 62
     7
 10
23.30000000000009
 20
-750.48492499999975
 30
0.0
 40
19.546093750000001
  1
A4
 41
0.7
 11
23.30000000000009
 21
-730.93883124999968
 31
0.0
 73
     3
  0
TEXT
  5
49
  8
HIBINO-BASE
 62
     7
 10
5.749999999999992
 20
-718.05765500000018
 30
0.0
 40
9.7730468749999986
  1
PAPER SIZE
 41
0.7
 11
5.749999999999992
 21
-708.2846081250002
 31
0.0
 73
     3
  0
LINE
  5
4A
  8
SPEC
  6
CONTINUOUS
 62
     7
 10
-494.99999999999989
 20
737.65907499999969
 30
0.0
 11
390.0
 21
737.65907499999969
 31
0.0
  0
LINE
  5
4B
  8
SPEC
  6
CONTINUOUS
 62
     7
 10
-494.99999999999989
 20
715.15907499999958
 30
0.0
 11
390.0
 21
715.15907499999958
 31
0.0
  0
LINE
  5
4C
  8
SPEC
  6
CONTINUOUS
 62
     7
 10
-494.99999999999989
 20
625.1590749999998
 30
0.0
 11
390.0
 21
625.1590749999998
 31
0.0
  0
LINE
  5
4D
  8
SPEC
  6
CONTINUOUS
 62
     7
 10
-494.99999999999989
 20
647.65907499999969
 30
0.0
 11
390.0
 21
647.65907499999969
 31
0.0
  0
LINE
  5
4E
  8
SPEC
  6
CONTINUOUS
 62
     7
 10
-494.99999999999989
 20
670.1590749999998
 30
0.0
 11
390.0
 21
670.1590749999998
 31
0.0
  0
LINE
  5
4F
  8
SPEC
  6
CONTINUOUS
 62
     7
 10
-494.99999999999989
 20
602.65907499999969
 30
0.0
 11
390.0
 21
602.65907499999969
 31
0.0
  0
LINE
  5
50
  8
SPEC
  6
CONTINUOUS
 62
     7
 10
-494.99999999999989
 20
557.6590749999998
 30
0.0
 11
390.0
 21
557.6590749999998
 31
0.0
  0
LINE
  5
51
  8
SPEC
  6
CONTINUOUS
 62
     7
 10
-494.99999999999989
 20
580.1590749999998
 30
0.0
 11
390.0
 21
580.1590749999998
 31
0.0
  0
LINE
  5
52
  8
SPEC
  6
CONTINUOUS
 62
     7
 10
-494.99999999999989
 20
692.65907499999969
 30
0.0
 11
390.0
 21
692.65907499999969
 31
0.0
  0
LINE
  5
53
  8
SPEC
  6
CONTINUOUS
 62
     7
 10
-494.99999999999989
 20
737.65907499999969
 30
0.0
 11
-494.99999999999989
 21
557.6590749999998
 31
0.0
  0
TEXT
  5
54
  8
SPEC
 62
     7
 10
-487.49999999999989
 20
746.01869499999987
 30
0.0
 40
14.6595703125
  1
仕様
 41
0.7
 11
-487.49999999999989
 21
760.6782653125
 31
0.0
 73
     3
  0
LINE
  5
55
  8
SPEC
  6
CONTINUOUS
 62
     7
 10
-300.0
 20
737.65907499999969
 30
0.0
 11
-300.0
 21
557.6590749999998
 31
0.0
  0
LINE
  5
56
  8
SPEC
  6
CONTINUOUS
 62
     7
 10
390.0
 20
737.65907499999969
 30
0.0
 11
390.0
 21
557.6590749999998
 31
0.0
  0
TEXT
  5
57
  8
SPEC
 62
     7
 10
-489.99209826434651
 20
720.57030302907162
 30
0.0
 40
11.401888020833329
  1
形式
 41
0.7
 11
-489.99209826434651
 21
731.97219104990495
 31
0.0
 73
     3
  0
TEXT
  5
58
  8
SPEC
 62
     7
 10
-294.79790457944767
 20
721.33718665910578
 30
0.0
 40
11.401888020833329
  1
スイッチ付グースネック
 41
0.7
 11
-294.79790457944767
 21
732.73907467993922
 31
0.0
 73
     3
  0
TEXT
  5
59
  8
SPEC
 62
     7
 10
-491.89988145466418
 20
698.69173728298767
 30
0.0
 40
11.401888020833329
  1
ローカットフィルター
 41
0.7
 11
-491.89988145466418
 21
710.09362530382089
 31
0.0
 73
     3
  0
TEXT
  5
5A
  8
SPEC
 62
     7
 10
-490.3050487354767
 20
676.53304028418302
 30
0.0
 40
11.401888020833329
  1
インピーダンス
 41
0.7
 11
-490.3050487354767
 21
687.93492830501634
 31
0.0
 73
     3
  0
TEXT
  5
5B
  8
SPEC
 62
     7
 10
-294.77773164826289
 20
676.02350247708875
 30
0.0
 40
11.401888020833329
  1
600\U+03A9以下
 41
0.7
 11
-294.77773164826289
 21
687.42539049792197
 31
0.0
 73
     3
  0
TEXT
  5
5C
  8
SPEC
 62
     7
 10
-294.53714595363158
 20
697.88234024255019
 30
0.0
 40
11.401888020833329
  1
200Hz(6dB/oct）＊ジャンパーで設定
 41
0.7
 11
-294.53714595363158
 21
709.28422826338362
 31
0.0
 73
     3
  0
TEXT
  5
5D
  8
SPEC
 62
     7
 10
-489.982777246051
 20
653.31128399326315
 30
0.0
 40
11.401888020833329
  1
電源
 41
0.7
 11
-489.982777246051
 21
664.71317201409636
 31
0.0
 73
     3
  0
TEXT
  5
5E
  8
SPEC
 62
     7
 10
-296.43366897914171
 20
654.04767631755828
 30
0.0
 40
11.401888020833329
  1
ファンタム　DC9～52V/3.5mA以下
 41
0.7
 11
-296.43366897914171
 21
665.44956433839161
 31
0.0
 73
     3
  0
TEXT
  5
5F
  8
SPEC
 62
     7
 10
-491.08113278346411
 20
630.84643775199993
 30
0.0
 40
11.401888020833329
  1
コネクター
 41
0.7
 11
-491.08113278346411
 21
642.24832577283325
 31
0.0
 73
     3
  0
TEXT
  5
60
  8
SPEC
 62
     7
 10
-294.51173209186021
 20
630.73305134448572
 30
0.0
 40
11.401888020833329
  1
XLR3ピン　オス
 41
0.7
 11
-294.51173209186021
 21
642.13493936531904
 31
0.0
 73
     3
  0
TEXT
  5
61
  8
SPEC
 62
     7
 10
-490.1517270245231
 20
608.85950083150226
 30
0.0
 40
11.401888020833329
  1
寸法
 41
0.7
 11
-490.1517270245231
 21
620.2613888523357
 31
0.0
 73
     3
  0
TEXT
  5
62
  8
SPEC
 62
     7
 10
-490.01231292141063
 20
585.87317488384622
 30
0.0
 40
11.401888020833329
  1
重量
 41
0.7
 11
-490.01231292141063
 21
597.27506290467954
 31
0.0
 73
     3
  0
TEXT
  5
63
  8
SPEC
 62
     7
 10
-296.32605620481439
 20
608.40235451878652
 30
0.0
 40
11.401888020833329
  1
\U+03A619\U+00D7598mm(突起部含まず)
 41
0.7
 11
-296.32605620481439
 21
619.80424253961985
 31
0.0
 73
     3
  0
TEXT
  5
64
  8
SPEC
 62
     7
 10
-294.82930235234397
 20
585.63400688177444
 30
0.0
 40
11.401888020833329
  1
本体：約200g 、 PS 3 F-LOCK：約56ｇ
 41
0.7
 11
-294.82930235234397
 21
597.03589490260765
 31
0.0
 73
     3
  0
TEXT
  5
65
  8
SPEC
 62
     7
 10
-294.27749771281799
 20
563.93727492141045
 30
0.0
 40
11.401888020833329
  1
XLRコネクタ ー用埋込パーツ(PS 3 F-LOCK)
 41
0.7
 11
-294.27749771281799
 21
575.33916294224366
 31
0.0
 73
     3
  0
TEXT
  5
66
  8
SPEC
 62
     7
 10
-489.46796135853032
 20
563.23268752139609
 30
0.0
 40
11.401888020833329
  1
付属品
 41
0.7
 11
-489.46796135853032
 21
574.63457554222953
 31
0.0
 73
     3
  0
TEXT
  5
67
  8
DIMNSIONS
 62
     7
 10
-120.0
 20
-688.7239850000002
 30
0.0
 40
14.6595703125
  1
(単位：mm)
 41
0.7
 11
-120.0
 21
-674.06441468750006
 31
0.0
 73
     3
  0
LINE
  5
68
  8
DIMNSIONS
  6
CONTINUOUS
 62
     7
 10
-50.216446212856169
 20
-365.0002917201312
 30
0.0
 11
-50.216446212856169
 21
-336.2502917201312
 31
0.0
  0
LINE
  5
69
  8
DIMNSIONS
  6
CONTINUOUS
 62
     7
 10
-63.206827269622792
 20
-387.5002917201312
 30
0.0
 11
-88.105057628425058
 21
-401.8752917201312
 31
0.0
  0
LINE
  5
6A
  8
DIMNSIONS
  6
CONTINUOUS
 62
     7
 10
-37.116446212856133
 20
-387.56358024651519
 30
0.0
 11
-12.32783479728691
 21
-401.8752917201312
 31
0.0
  0
ARC
  5
6B
  8
DIMNSIONS
  6
CONTINUOUS
 62
     7
 10
-50.216446212856169
 20
-380.0002917201312
 30
0.0
 40
37.505914206433417
 50
330.00000000000011
 51
89.999999999999957
  0
LINE
  5
6C
  8
DIMNSIONS
  6
CONTINUOUS
 62
     7
 10
-50.216446212856169
 20
-342.49437751369771
 30
0.0
 11
-35.212710861293679
 21
-338.4741387427963
 31
0.0
  0
LINE
  5
6D
  8
DIMNSIONS
  6
CONTINUOUS
 62
     7
 10
-50.216446212856169
 20
-342.49437751369771
 30
0.0
 11
-35.212710861293679
 21
-346.51461628459907
 31
0.0
  0
LINE
  5
6E
  8
DIMNSIONS
  6
CONTINUOUS
 62
     7
 10
-17.735371717925119
 20
-398.7532488233478
 30
0.0
 11
-13.715132947023671
 21
-383.74951347178529
 31
0.0
  0
LINE
  5
6F
  8
DIMNSIONS
  6
CONTINUOUS
 62
     7
 10
-17.735371717925119
 20
-398.7532488233478
 30
0.0
 11
-6.7518751372640864
 21
-387.76975224268682
 31
0.0
  0
TEXT
  5
70
  8
DIMNSIONS
 62
     7
 10
-26.66616563047511
 20
-335.85207914178449
 30
0.0
 40
16.288411458333329
  1
120\U+00B0
 50
300.0
 41
0.7
 11
-12.55998752026491
 21
-327.7078734126178
 31
0.0
 73
     3
  0
ARC
  5
71
  8
DIMNSIONS
  6
CONTINUOUS
 62
     7
 10
-50.216446212856169
 20
-380.0002917201312
 30
0.0
 40
37.501195753907318
 50
210.00000000000011
 51
330.00000000000011
  0
LINE
  5
72
  8
DIMNSIONS
  6
CONTINUOUS
 62
     7
 10
-17.73945801767929
 20
-398.75088959708472
 30
0.0
 11
-21.759696788580751
 21
-413.75462494864712
 31
0.0
  0
LINE
  5
73
  8
DIMNSIONS
  6
CONTINUOUS
 62
     7
 10
-17.73945801767929
 20
-398.75088959708472
 30
0.0
 11
-28.72295459834033
 21
-409.73438617774571
 31
0.0
  0
LINE
  5
74
  8
DIMNSIONS
  6
CONTINUOUS
 62
     7
 10
-82.693434408032985
 20
-398.75088959708489
 30
0.0
 11
-71.709937827371945
 21
-409.73438617774588
 31
0.0
  0
LINE
  5
75
  8
DIMNSIONS
  6
CONTINUOUS
 62
     7
 10
-82.693434408032985
 20
-398.75088959708489
 30
0.0
 11
-78.673195637131514
 21
-413.7546249486474
 31
0.0
  0
TEXT
  5
76
  8
DIMNSIONS
 62
     7
 10
-76.674779546189427
 20
-437.70482080737168
 30
0.0
 40
16.288411458333329
  1
120\U+00B0
 41
0.7
 11
-76.674779546189427
 21
-421.41640934903842
 31
0.0
 73
     3
  0
ARC
  5
77
  8
DIMNSIONS
  6
CONTINUOUS
 62
     7
 10
-50.216446212856169
 20
-380.0002917201312
 30
0.0
 40
37.504196233814703
 50
90.0
 51
210.00000000000011
  0
LINE
  5
78
  8
DIMNSIONS
  6
CONTINUOUS
 62
     7
 10
-82.696032899856348
 20
-398.75238983703849
 30
0.0
 11
-93.679529480517374
 21
-387.76889325637751
 31
0.0
  0
LINE
  5
79
  8
DIMNSIONS
  6
CONTINUOUS
 62
     7
 10
-82.696032899856348
 20
-398.75238983703849
 30
0.0
 11
-86.716271670757791
 21
-383.74865448547598
 31
0.0
  0
LINE
  5
7A
  8
DIMNSIONS
  6
CONTINUOUS
 62
     7
 10
-50.216446212856169
 20
-342.49609548631639
 30
0.0
 11
-65.288059263857107
 21
-346.25387066794769
 31
0.0
  0
LINE
  5
7B
  8
DIMNSIONS
  6
CONTINUOUS
 62
     7
 10
-50.216446212856169
 20
-342.49609548631639
 30
0.0
 11
-65.147733581847717
 21
-338.21461772981928
 31
0.0
  0
TEXT
  5
7C
  8
DIMNSIONS
 62
     7
 10
-100.2235723206398
 20
-381.6801157450198
 30
0.0
 40
16.288411458333329
  1
120\U+00B0
 50
59.999999999999432
 41
0.7
 11
-114.3297504308499
 21
-373.53591001585312
 31
0.0
 73
     3
  0
LINE
  5
7D
  8
DIMNSIONS
  6
CONTINUOUS
 62
     7
 10
-294.91545945103968
 20
-241.97519798344561
 30
0.0
 11
-284.35000000002231
 21
-225.3000000000508
 31
0.0
  0
LINE
  5
7E
  8
DIMNSIONS
  6
CONTINUOUS
 62
     7
 10
-294.91545945103968
 20
-241.97519798344561
 30
0.0
 11
-290.11549544081203
 21
-227.20242777013411
 31
0.0
  0
LINE
  5
7F
  8
DIMNSIONS
  6
CONTINUOUS
 62
     7
 10
-294.91545945103968
 20
-241.97519798344561
 30
0.0
 11
-283.37218357427571
 21
-231.5815856995616
 31
0.0
  0
LINE
  5
80
  8
DIMNSIONS
  6
CONTINUOUS
 62
     7
 10
-284.35000000002231
 20
-225.3000000000508
 30
0.0
 11
-230.01666666668899
 21
-225.3000000000508
 31
0.0
  0
TEXT
  5
81
  8
DIMNSIONS
 62
     7
 10
-272.35000000002231
 20
-220.33666666671741
 30
0.0
 40
16.288411458333329
  1
\U+03C619
 41
0.7
 11
-272.35000000002231
 21
-204.04825520838409
 31
0.0
 73
     3
  0
LINE
  5
82
  8
DIMNSIONS
  6
CONTINUOUS
 62
     7
 10
-321.50000000002223
 20
-200.00000000001111
 30
0.0
 11
-362.0
 21
-200.00000000001111
 31
0.0
  0
LINE
  5
83
  8
DIMNSIONS
  6
CONTINUOUS
 62
     7
 10
-316.75000000002223
 20
-45.000000000011049
 30
0.0
 11
-362.0
 21
-45.000000000011049
 31
0.0
  0
LINE
  5
84
  8
DIMNSIONS
  6
CONTINUOUS
 62
     7
 10
-350.0
 20
-200.00000000001111
 30
0.0
 11
-350.0
 21
-45.000000000011049
 31
0.0
  0
LINE
  5
85
  8
DIMNSIONS
  6
CONTINUOUS
 62
     7
 10
-350.0
 20
-200.00000000001111
 30
0.0
 11
-354.02023877090153
 21
-184.9962646484486
 31
0.0
  0
LINE
  5
86
  8
DIMNSIONS
  6
CONTINUOUS
 62
     7
 10
-350.0
 20
-200.00000000001111
 30
0.0
 11
-345.97976122909847
 21
-184.9962646484486
 31
0.0
  0
LINE
  5
87
  8
DIMNSIONS
  6
CONTINUOUS
 62
     7
 10
-350.0
 20
-45.000000000011049
 30
0.0
 11
-345.97976122909847
 21
-60.003735351573539
 31
0.0
  0
LINE
  5
88
  8
DIMNSIONS
  6
CONTINUOUS
 62
     7
 10
-350.0
 20
-45.000000000011049
 30
0.0
 11
-354.02023877090153
 21
-60.003735351573539
 31
0.0
  0
TEXT
  5
89
  8
DIMNSIONS
 62
     7
 10
-354.9633333333332
 20
-138.375000000011
 30
0.0
 40
16.288411458333329
  1
155
 50
90.0
 41
0.7
 11
-371.25174479166662
 21
-138.375000000011
 31
0.0
 73
     3
  0
LINE
  5
8A
  8
DIMNSIONS
  6
CONTINUOUS
 62
     7
 10
-321.50000000002223
 20
-200.00000000001111
 30
0.0
 11
-412.0
 21
-200.00000000001111
 31
0.0
  0
LINE
  5
8B
  8
DIMNSIONS
  6
CONTINUOUS
 62
     7
 10
-319.00000000002223
 20
397.9999999999888
 30
0.0
 11
-412.0
 21
397.9999999999888
 31
0.0
  0
LINE
  5
8C
  8
DIMNSIONS
  6
CONTINUOUS
 62
     7
 10
-400.0
 20
-200.00000000001111
 30
0.0
 11
-400.0
 21
397.9999999999888
 31
0.0
  0
LINE
  5
8D
  8
DIMNSIONS
  6
CONTINUOUS
 62
     7
 10
-400.0
 20
-200.00000000001111
 30
0.0
 11
-404.02023877090141
 21
-184.9962646484486
 31
0.0
  0
LINE
  5
8E
  8
DIMNSIONS
  6
CONTINUOUS
 62
     7
 10
-400.0
 20
-200.00000000001111
 30
0.0
 11
-395.97976122909847
 21
-184.9962646484486
 31
0.0
  0
LINE
  5
8F
  8
DIMNSIONS
  6
CONTINUOUS
 62
     7
 10
-400.0
 20
397.9999999999888
 30
0.0
 11
-395.97976122909847
 21
382.99626464842629
 31
0.0
  0
LINE
  5
90
  8
DIMNSIONS
  6
CONTINUOUS
 62
     7
 10
-400.0
 20
397.9999999999888
 30
0.0
 11
-404.02023877090141
 21
382.99626464842629
 31
0.0
  0
TEXT
  5
91
  8
DIMNSIONS
 62
     7
 10
-405.9633333333332
 20
83.124999999988916
 30
0.0
 40
16.288411458333329
  1
598
 50
90.0
 41
0.7
 11
-422.25174479166651
 21
83.124999999988916
 31
0.0
 73
     3
  0
LINE
  5
92
  8
DIMNSIONS
  6
CONTINUOUS
 62
     7
 10
-311.0000000000316
 20
-378.7000000000404
 30
0.0
 11
-311.0000000000316
 21
-462.0
 31
0.0
  0
LINE
  5
93
  8
DIMNSIONS
  6
CONTINUOUS
 62
     7
 10
-289.0000000000316
 20
-378.7000000000404
 30
0.0
 11
-289.0000000000316
 21
-462.0
 31
0.0
  0
LINE
  5
94
  8
DIMNSIONS
  6
CONTINUOUS
 62
     7
 10
-289.0000000000316
 20
-450.0
 30
0.0
 11
-311.0000000000316
 21
-450.0
 31
0.0
  0
LINE
  5
95
  8
DIMNSIONS
  6
CONTINUOUS
 62
     7
 10
-311.0000000000316
 20
-450.0
 30
0.0
 11
-341.0000000000316
 21
-450.0
 31
0.0
  0
LINE
  5
96
  8
DIMNSIONS
  6
CONTINUOUS
 62
     7
 10
-311.0000000000316
 20
-450.0
 30
0.0
 11
-326.00373535159412
 21
-454.02023877090141
 31
0.0
  0
LINE
  5
97
  8
DIMNSIONS
  6
CONTINUOUS
 62
     7
 10
-311.0000000000316
 20
-450.0
 30
0.0
 11
-326.00373535159412
 21
-445.97976122909847
 31
0.0
  0
LINE
  5
98
  8
DIMNSIONS
  6
CONTINUOUS
 62
     7
 10
-289.0000000000316
 20
-450.0
 30
0.0
 11
-259.0000000000316
 21
-450.0
 31
0.0
  0
LINE
  5
99
  8
DIMNSIONS
  6
CONTINUOUS
 62
     7
 10
-289.0000000000316
 20
-450.0
 30
0.0
 11
-273.99626464846909
 21
-445.97976122909847
 31
0.0
  0
LINE
  5
9A
  8
DIMNSIONS
  6
CONTINUOUS
 62
     7
 10
-289.0000000000316
 20
-450.0
 30
0.0
 11
-273.99626464846909
 21
-454.02023877090141
 31
0.0
  0
TEXT
  5
9B
  8
DIMNSIONS
 62
     7
 10
-310.58333938919679
 20
-444.03666512116729
 30
0.0
 40
16.288419953404201
  1
22
 41
0.7
 11
-310.58333938919679
 21
-427.74824516776317
 31
0.0
 73
     3
  0
LINE
  5
9C
  8
DIMNSIONS
  6
CONTINUOUS
 62
     7
 10
-295.05025253171652
 20
434.94974746829462
 30
0.0
 11
-270.77380362951192
 21
459.22619637049911
 31
0.0
  0
LINE
  5
9D
  8
DIMNSIONS
  6
CONTINUOUS
 62
     7
 10
-295.05025253171652
 20
434.94974746829462
 30
0.0
 11
-287.28374761839183
 21
448.40172857540631
 31
0.0
  0
LINE
  5
9E
  8
DIMNSIONS
  6
CONTINUOUS
 62
     7
 10
-295.05025253171652
 20
434.94974746829462
 30
0.0
 11
-281.59827142460477
 21
442.71625238161931
 31
0.0
  0
LINE
  5
9F
  8
DIMNSIONS
  6
CONTINUOUS
 62
     7
 10
-270.77380362951192
 20
459.22619637049911
 30
0.0
 11
-216.44044607285099
 21
459.22619637049911
 31
0.0
  0
TEXT
  5
A0
  8
DIMNSIONS
 62
     7
 10
-258.77380362951192
 20
465.18953129348893
 30
0.0
 40
16.288420196120601
  1
\U+03C614
 41
0.7
 11
-258.77380362951192
 21
481.4779514896095
 31
0.0
 73
     3
  0
LINE
  5
A1
  8
DIMNSIONS
  6
CONTINUOUS
 62
     7
 10
-312.00000000002223
 20
-259.50000000003803
 30
0.0
 11
-362.00000000001
 21
-259.49999999998488
 31
0.0
  0
LINE
  5
A2
  8
DIMNSIONS
  6
CONTINUOUS
 62
     7
 10
-312.0
 20
-238.500000000038
 30
0.0
 11
-361.99999999998772
 21
-238.49999999998491
 31
0.0
  0
LINE
  5
A3
  8
DIMNSIONS
  6
CONTINUOUS
 62
     7
 10
-349.99999999998772
 20
-238.49999999999761
 30
0.0
 11
-350.00000000001012
 21
-259.49999999999773
 31
0.0
  0
LINE
  5
A4
  8
DIMNSIONS
  6
CONTINUOUS
 62
     7
 10
-350.00000000001012
 20
-259.49999999999773
 30
0.0
 11
-350.00000000004189
 21
-289.49999999999773
 31
0.0
  0
LINE
  5
A5
  8
DIMNSIONS
  6
CONTINUOUS
 62
     7
 10
-350.00000000001012
 20
-259.49999999999773
 30
0.0
 11
-345.97976122910859
 21
-274.50373535156018
 31
0.0
  0
LINE
  5
A6
  8
DIMNSIONS
  6
CONTINUOUS
 62
     7
 10
-350.00000000001012
 20
-259.49999999999773
 30
0.0
 11
-354.02023877091148
 21
-274.50373535156018
 31
0.0
  0
LINE
  5
A7
  8
DIMNSIONS
  6
CONTINUOUS
 62
     7
 10
-349.99999999998772
 20
-238.49999999999761
 30
0.0
 11
-349.99999999995589
 21
-208.49999999999761
 31
0.0
  0
LINE
  5
A8
  8
DIMNSIONS
  6
CONTINUOUS
 62
     7
 10
-349.99999999998772
 20
-238.49999999999761
 30
0.0
 11
-353.75777518161902
 21
-223.4283869489968
 31
0.0
  0
LINE
  5
A9
  8
DIMNSIONS
  6
CONTINUOUS
 62
     7
 10
-349.99999999998772
 20
-238.49999999999761
 30
0.0
 11
-345.71852224349072
 21
-223.56871263100609
 31
0.0
  0
TEXT
  5
AA
  8
DIMNSIONS
 62
     7
 10
-355.96333492299982
 20
-259.58333938915661
 30
0.0
 40
16.288420196120601
  1
21
 50
89.999999999939192
 41
0.7
 11
-372.25175511912039
 21
-259.58333938913933
 31
0.0
 73
     3
  0
LINE
  5
AB
  8
DIMNSIONS
  6
CONTINUOUS
 62
     7
 10
-316.9000000000317
 20
-400.0000000000403
 30
0.0
 11
-412.0
 21
-400.0000000000403
 31
0.0
  0
LINE
  5
AC
  8
DIMNSIONS
  6
CONTINUOUS
 62
     7
 10
-319.85000000003163
 20
-329.50000000004042
 30
0.0
 11
-412.0
 21
-329.50000000004042
 31
0.0
  0
LINE
  5
AD
  8
DIMNSIONS
  6
CONTINUOUS
 62
     7
 10
-400.0
 20
-400.0000000000403
 30
0.0
 11
-400.0
 21
-329.50000000004042
 31
0.0
  0
LINE
  5
AE
  8
DIMNSIONS
  6
CONTINUOUS
 62
     7
 10
-400.0
 20
-400.0000000000403
 30
0.0
 11
-404.02023877090141
 21
-384.99626464847779
 31
0.0
  0
LINE
  5
AF
  8
DIMNSIONS
  6
CONTINUOUS
 62
     7
 10
-400.0
 20
-400.0000000000403
 30
0.0
 11
-395.97976122909847
 21
-384.99626464847779
 31
0.0
  0
LINE
  5
B0
  8
DIMNSIONS
  6
CONTINUOUS
 62
     7
 10
-400.0
 20
-329.50000000004042
 30
0.0
 11
-395.97976122909847
 21
-344.50373535160293
 31
0.0
  0
LINE
  5
B1
  8
DIMNSIONS
  6
CONTINUOUS
 62
     7
 10
-400.0
 20
-329.50000000004042
 30
0.0
 11
-404.02023877090141
 21
-344.50373535160293
 31
0.0
  0
TEXT
  5
B2
  8
DIMNSIONS
 62
     7
 10
-405.9633349229897
 20
-385.91667877837079
 30
0.0
 40
16.288420196120601
  1
70.5
 50
90.0
 41
0.7
 11
-422.25175511911033
 21
-385.91667877837079
 31
0.0
 73
     3
  0
LINE
  5
B3
  8
DIMNSIONS
  6
CONTINUOUS
 62
     7
 10
-334.5000000000316
 20
-362.50000000004042
 30
0.0
 11
-362.0
 21
-362.50000000004042
 31
0.0
  0
LINE
  5
B4
  8
DIMNSIONS
  6
CONTINUOUS
 62
     7
 10
-319.85000000003163
 20
-329.50000000004042
 30
0.0
 11
-362.0
 21
-329.50000000004042
 31
0.0
  0
LINE
  5
B5
  8
DIMNSIONS
  6
CONTINUOUS
 62
     7
 10
-350.0
 20
-362.50000000004042
 30
0.0
 11
-350.0
 21
-329.50000000004042
 31
0.0
  0
LINE
  5
B6
  8
DIMNSIONS
  6
CONTINUOUS
 62
     7
 10
-350.0
 20
-362.50000000004042
 30
0.0
 11
-354.02023877090153
 21
-347.49626464847779
 31
0.0
  0
LINE
  5
B7
  8
DIMNSIONS
  6
CONTINUOUS
 62
     7
 10
-350.0
 20
-362.50000000004042
 30
0.0
 11
-345.97976122909847
 21
-347.49626464847779
 31
0.0
  0
LINE
  5
B8
  8
DIMNSIONS
  6
CONTINUOUS
 62
     7
 10
-350.0
 20
-329.50000000004042
 30
0.0
 11
-345.97976122909847
 21
-344.50373535160293
 31
0.0
  0
LINE
  5
B9
  8
DIMNSIONS
  6
CONTINUOUS
 62
     7
 10
-350.0
 20
-329.50000000004042
 30
0.0
 11
-354.02023877090153
 21
-344.50373535160293
 31
0.0
  0
TEXT
  5
BA
  8
DIMNSIONS
 62
     7
 10
-355.9633349229897
 20
-356.58333938920549
 30
0.0
 40
16.288420196120601
  1
33
 50
90.0
 41
0.7
 11
-372.25175511911033
 21
-356.58333938920549
 31
0.0
 73
     3
  0
LINE
  5
BB
  8
DIMNSIONS
  6
CONTINUOUS
 62
     7
 10
-334.5000000000316
 20
-364.50000000004042
 30
0.0
 11
-362.0
 21
-364.50000000004042
 31
0.0
  0
LINE
  5
BC
  8
DIMNSIONS
  6
CONTINUOUS
 62
     7
 10
-334.5000000000316
 20
-362.50000000004042
 30
0.0
 11
-362.0
 21
-362.50000000004042
 31
0.0
  0
LINE
  5
BD
  8
DIMNSIONS
  6
CONTINUOUS
 62
     7
 10
-350.0
 20
-362.50000000004042
 30
0.0
 11
-350.0
 21
-364.50000000004042
 31
0.0
  0
LINE
  5
BE
  8
DIMNSIONS
  6
CONTINUOUS
 62
     7
 10
-350.0
 20
-364.50000000004042
 30
0.0
 11
-350.0
 21
-390.77108072187781
 31
0.0
  0
LINE
  5
BF
  8
DIMNSIONS
  6
CONTINUOUS
 62
     7
 10
-350.0
 20
-364.50000000004042
 30
0.0
 11
-345.97976122909847
 21
-379.50373535160293
 31
0.0
  0
LINE
  5
C0
  8
DIMNSIONS
  6
CONTINUOUS
 62
     7
 10
-350.0
 20
-364.50000000004042
 30
0.0
 11
-354.02023877090153
 21
-379.50373535160293
 31
0.0
  0
LINE
  5
C1
  8
DIMNSIONS
  6
CONTINUOUS
 62
     7
 10
-350.0
 20
-362.50000000004042
 30
0.0
 11
-350.0
 21
-332.50000000004042
 31
0.0
  0
LINE
  5
C2
  8
DIMNSIONS
  6
CONTINUOUS
 62
     7
 10
-350.0
 20
-362.50000000004042
 30
0.0
 11
-354.02023877090153
 21
-347.49626464847779
 31
0.0
  0
LINE
  5
C3
  8
DIMNSIONS
  6
CONTINUOUS
 62
     7
 10
-350.0
 20
-362.50000000004042
 30
0.0
 11
-345.97976122909847
 21
-347.49626464847779
 31
0.0
  0
TEXT
  5
C4
  8
DIMNSIONS
 62
     7
 10
-355.96333492298947
 20
-390.77108072187769
 30
0.0
 40
16.288420196120601
  1
2
 50
90.0
 41
0.7
 11
-372.2517551191101
 21
-390.77108072187769
 31
0.0
 73
     3
  0
LINE
  5
C5
  8
DIMNSIONS
  6
CONTINUOUS
 62
     7
 10
-286.92214064134112
 20
-531.69099689781285
 30
0.0
 11
-250.0
 21
-480.0
 31
0.0
  0
LINE
  5
C6
  8
DIMNSIONS
  6
CONTINUOUS
 62
     7
 10
-286.92214064134112
 20
-531.69099689781285
 30
0.0
 11
-281.35560775949767
 21
-517.18968295906416
 31
0.0
  0
LINE
  5
C7
  8
DIMNSIONS
  6
CONTINUOUS
 62
     7
 10
-286.92214064134112
 20
-531.69099689781285
 30
0.0
 11
-274.85072478528912
 21
-521.91575707952495
 31
0.0
  0
LINE
  5
C8
  8
DIMNSIONS
  6
CONTINUOUS
 62
     7
 10
-250.0
 20
-480.0
 30
0.0
 11
-195.66664244333899
 21
-480.0
 31
0.0
  0
TEXT
  5
C9
  8
DIMNSIONS
 62
     7
 10
-238.00000000000011
 20
-474.0366650770103
 30
0.0
 40
16.288420196120601
  1
\U+03C645
 41
0.7
 11
-238.00000000000011
 21
-457.74824488088962
 31
0.0
 73
     3
  0
LINE
  5
CA
  8
DIMNSIONS
  6
CONTINUOUS
 62
     7
 10
-283.5399795031488
 20
-557.71862915005772
 30
0.0
 11
-250.0
 21
-524.17864964690898
 31
0.0
  0
LINE
  5
CB
  8
DIMNSIONS
  6
CONTINUOUS
 62
     7
 10
-283.5399795031488
 20
-557.71862915005772
 30
0.0
 11
-275.53988802447242
 21
-544.40424104516921
 31
0.0
  0
LINE
  5
CC
  8
DIMNSIONS
  6
CONTINUOUS
 62
     7
 10
-283.5399795031488
 20
-557.71862915005772
 30
0.0
 11
-269.9545029975713
 21
-550.18807655471721
 31
0.0
  0
LINE
  5
CD
  8
DIMNSIONS
  6
CONTINUOUS
 62
     7
 10
-250.0
 20
-524.17864964690898
 30
0.0
 11
-185.08330507278441
 21
-524.17864964690898
 31
0.0
  0
TEXT
  5
CE
  8
DIMNSIONS
 62
     7
 10
-238.0
 20
-518.21531472391928
 30
0.0
 40
16.288420196120601
  1
\U+03C63.2
 41
0.7
 11
-238.0
 21
-501.92689452779871
 31
0.0
 73
     3
  0
LINE
  5
CF
  8
DIMNSIONS
  6
CONTINUOUS
 62
     7
 10
88.000000000027086
 20
-391.0002917201312
 30
0.0
 11
38.0
 21
-391.0002917201312
 31
0.0
  0
LINE
  5
D0
  8
DIMNSIONS
  6
CONTINUOUS
 62
     7
 10
88.000000000027086
 20
-369.0002917201312
 30
0.0
 11
38.0
 21
-369.0002917201312
 31
0.0
  0
LINE
  5
D1
  8
DIMNSIONS
  6
CONTINUOUS
 62
     7
 10
50.0
 20
-369.0002917201312
 30
0.0
 11
50.0
 21
-391.0002917201312
 31
0.0
  0
LINE
  5
D2
  8
DIMNSIONS
  6
CONTINUOUS
 62
     7
 10
50.0
 20
-391.0002917201312
 30
0.0
 11
50.0
 21
-421.0002917201312
 31
0.0
  0
LINE
  5
D3
  8
DIMNSIONS
  6
CONTINUOUS
 62
     7
 10
50.0
 20
-391.0002917201312
 30
0.0
 11
54.020238770901457
 21
-406.00402707169371
 31
0.0
  0
LINE
  5
D4
  8
DIMNSIONS
  6
CONTINUOUS
 62
     7
 10
50.0
 20
-391.0002917201312
 30
0.0
 11
45.979761229098543
 21
-406.00402707169371
 31
0.0
  0
LINE
  5
D5
  8
DIMNSIONS
  6
CONTINUOUS
 62
     7
 10
50.0
 20
-369.0002917201312
 30
0.0
 11
50.0
 21
-339.0002917201312
 31
0.0
  0
LINE
  5
D6
  8
DIMNSIONS
  6
CONTINUOUS
 62
     7
 10
50.0
 20
-369.0002917201312
 30
0.0
 11
45.979761229098543
 21
-353.99655636856869
 31
0.0
  0
LINE
  5
D7
  8
DIMNSIONS
  6
CONTINUOUS
 62
     7
 10
50.0
 20
-369.0002917201312
 30
0.0
 11
54.020238770901457
 21
-353.99655636856869
 31
0.0
  0
TEXT
  5
D8
  8
DIMNSIONS
 62
     7
 10
44.03666507701034
 20
-390.58363110929628
 30
0.0
 40
16.288420196120601
  1
22
 50
90.0
 41
0.7
 11
27.74824488088974
 21
-390.58363110929628
 31
0.0
 73
     3
  0
LINE
  5
D9
  8
DIMNSIONS
  6
CONTINUOUS
 62
     7
 10
109.0000000000272
 20
-364.41183445201131
 30
0.0
 11
128.8676818842053
 21
-330.0
 31
0.0
  0
LINE
  5
DA
  8
DIMNSIONS
  6
CONTINUOUS
 62
     7
 10
109.0000000000272
 20
-364.41183445201131
 30
0.0
 11
113.2814777565243
 21
-349.48054708301981
 31
0.0
  0
LINE
  5
DB
  8
DIMNSIONS
  6
CONTINUOUS
 62
     7
 10
109.0000000000272
 20
-364.41183445201131
 30
0.0
 11
120.1735121873875
 21
-353.62169915750741
 31
0.0
  0
LINE
  5
DC
  8
DIMNSIONS
  6
CONTINUOUS
 62
     7
 10
128.8676818842053
 20
-330.0
 30
0.0
 11
183.2010394408662
 21
-330.0
 31
0.0
  0
TEXT
  5
DD
  8
DIMNSIONS
 62
     7
 10
140.8676818842053
 20
-324.0366650770103
 30
0.0
 40
16.288420196120601
  1
\U+03C636
 41
0.7
 11
140.8676818842053
 21
-307.74824488088967
 31
0.0
 73
     3
  0
TEXT
  5
DE
  8
DATA
 62
     7
 10
300.0
 20
-695.55558499999995
 30
0.0
 40
14.6595703125
  1
GN 50 ESP
 41
0.7
 11
300.0
 21
-680.89601468750004
 31
0.0
 73
     3
  0
TEXT
  5
DF
  8
DATA
 62
     7
 10
300.0
 20
-652.05558499999995
 30
0.0
 40
14.6595703125
  1
AKG
 41
0.7
 11
300.0
 21
-637.39601468750004
 31
0.0
 73
     3
  0
TEXT
  5
E0
  8
DATA
 62
     7
 10
287.05909531723643
 20
-672.23095709425445
 30
0.0
 40
9.7730622656249988
  1
グースネック
 41
0.7
 11
287.05909531723643
 21
-662.45789482862949
 31
0.0
 73
     3
  0
TEXT
  5
E1
  8
DATA
 62
     7
 10
-479.99999999999989
 20
-736.91292500000009
 30
0.0
 40
9.7730468749999986
  1
仕様および外観は予告なく変更されることがありますので、ご了承ください。
 41
0.7
 11
-479.99999999999989
 21
-727.13987812500011
 31
0.0
 73
     3
  0
CIRCLE
  5
E2
  8
DATA
  6
CONTINUOUS
 62
     7
 10
-50.216446212856169
 20
-380.0002917201312
 30
0.0
 40
22.500000000000028
  0
CIRCLE
  5
E3
  8
DATA
  6
CONTINUOUS
 62
     7
 10
-50.216446212856169
 20
-380.0002917201312
 30
0.0
 40
12.65
  0
CIRCLE
  5
E4
  8
DATA
  6
CONTINUOUS
 62
     7
 10
-50.216446212856169
 20
-380.0002917201312
 30
0.0
 40
7.8500000000000361
  0
CIRCLE
  5
E5
  8
DATA
  6
CONTINUOUS
 62
     7
 10
-50.216446212856169
 20
-362.30029172013121
 30
0.0
 40
1.600000000000029
  0
CIRCLE
  5
E6
  8
DATA
  6
CONTINUOUS
 62
     7
 10
-65.545095859840529
 20
-388.85029172013122
 30
0.0
 40
1.5999999999999579
  0
CIRCLE
  5
E7
  8
DATA
  6
CONTINUOUS
 62
     7
 10
-50.216446212856169
 20
-362.30029172013121
 30
0.0
 40
3.350000000000029
  0
CIRCLE
  5
E8
  8
DATA
  6
CONTINUOUS
 62
     7
 10
-65.545095859840529
 20
-388.85029172013122
 30
0.0
 40
3.349999999999965
  0
CIRCLE
  5
E9
  8
DATA
  6
CONTINUOUS
 62
     7
 10
-34.887796565871753
 20
-388.85029172013122
 30
0.0
 40
3.349999999999969
  0
CIRCLE
  5
EA
  8
DATA
  6
CONTINUOUS
 62
     7
 10
-34.887796565871753
 20
-388.85029172013122
 30
0.0
 40
1.599999999999965
  0
CIRCLE
  5
EB
  8
DATA
  6
CONTINUOUS
 62
     7
 10
-50.216446212856169
 20
-384.19792242435278
 30
0.0
 40
1.2849999999999751
  0
CIRCLE
  5
EC
  8
DATA
  6
CONTINUOUS
 62
     7
 10
-54.092860285624361
 20
-381.76088404407568
 30
0.0
 40
1.2849999999999751
  0
CIRCLE
  5
ED
  8
DATA
  6
CONTINUOUS
 62
     7
 10
-46.340032140087992
 20
-381.76088404407568
 30
0.0
 40
1.2849999999999679
  0
ARC
  5
EE
  8
DATA
  6
CONTINUOUS
 62
     7
 10
-55.166446212856073
 20
-374.02558592372901
 30
0.0
 40
1.1313708498984929
 50
40.107835965610761
 51
219.17516296021631
  0
CIRCLE
  5
EF
  8
DATA
  6
CONTINUOUS
 62
     7
 10
-300.0000000000316
 20
-549.99999999995657
 30
0.0
 40
22.5
  0
CIRCLE
  5
F0
  8
DATA
  6
CONTINUOUS
 62
     7
 10
-300.0000000000316
 20
-549.99999999995657
 30
0.0
 40
12.64999999999997
  0
CIRCLE
  5
F1
  8
DATA
  6
CONTINUOUS
 62
     7
 10
-300.0000000000316
 20
-549.99999999995657
 30
0.0
 40
7.8500000000000218
  0
CIRCLE
  5
F2
  8
DATA
  6
CONTINUOUS
 62
     7
 10
-300.0000000000316
 20
-532.29999999995744
 30
0.0
 40
1.6000000000000221
  0
CIRCLE
  5
F3
  8
DATA
  6
CONTINUOUS
 62
     7
 10
-315.32864964701588
 20
-558.84999999995625
 30
0.0
 40
1.5999999999999091
  0
CIRCLE
  5
F4
  8
DATA
  6
CONTINUOUS
 62
     7
 10
-300.0000000000316
 20
-532.29999999995744
 30
0.0
 40
3.3500000000000218
  0
CIRCLE
  5
F5
  8
DATA
  6
CONTINUOUS
 62
     7
 10
-315.32864964701588
 20
-558.84999999995625
 30
0.0
 40
3.3499999999999082
  0
CIRCLE
  5
F6
  8
DATA
  6
CONTINUOUS
 62
     7
 10
-284.67135035304727
 20
-558.84999999995625
 30
0.0
 40
3.3500000000000218
  0
CIRCLE
  5
F7
  8
DATA
  6
CONTINUOUS
 62
     7
 10
-284.67135035304727
 20
-558.84999999995625
 30
0.0
 40
1.6000000000000221
  0
LINE
  5
F8
  8
DATA
  6
CONTINUOUS
 62
     7
 10
-322.5000000000316
 20
-364.50000000004042
 30
0.0
 11
-277.5000000000316
 21
-364.50000000004042
 31
0.0
  0
LINE
  5
F9
  8
DATA
  6
CONTINUOUS
 62
     7
 10
-322.5000000000316
 20
-362.50000000004042
 30
0.0
 11
-277.5000000000316
 21
-362.50000000004042
 31
0.0
  0
LINE
  5
FA
  8
DATA
  6
CONTINUOUS
 62
     7
 10
-277.5000000000316
 20
-362.50000000004042
 30
0.0
 11
-277.5000000000316
 21
-364.50000000004042
 31
0.0
  0
LINE
  5
FB
  8
DATA
  6
CONTINUOUS
 62
     7
 10
-322.5000000000316
 20
-364.50000000004042
 30
0.0
 11
-322.5000000000316
 21
-362.50000000004042
 31
0.0
  0
LINE
  5
FC
  8
DATA
  6
CONTINUOUS
 62
     7
 10
-307.85000000003163
 20
-329.50000000004042
 30
0.0
 11
-292.1500000000317
 21
-329.50000000004042
 31
0.0
  0
LINE
  5
FD
  8
DATA
  6
CONTINUOUS
 62
     7
 10
-312.65000000003158
 20
-356.50000000004042
 30
0.0
 11
-312.65000000003158
 21
-348.5000000000403
 31
0.0
  0
LINE
  5
FE
  8
DATA
  6
CONTINUOUS
 62
     7
 10
-287.35000000003163
 20
-356.50000000004042
 30
0.0
 11
-287.35000000003163
 21
-348.5000000000403
 31
0.0
  0
LINE
  5
FF
  8
DATA
  6
CONTINUOUS
 62
     7
 10
-312.0000000000316
 20
-362.50000000004042
 30
0.0
 11
-312.0000000000316
 21
-356.50000000004042
 31
0.0
  0
LINE
  5
100
  8
DATA
  6
CONTINUOUS
 62
     7
 10
-288.0000000000316
 20
-356.50000000004042
 30
0.0
 11
-288.0000000000316
 21
-362.50000000004042
 31
0.0
  0
LINE
  5
101
  8
DATA
  6
CONTINUOUS
 62
     7
 10
-312.0000000000316
 20
-361.0000000000403
 30
0.0
 11
-288.0000000000316
 21
-361.0000000000403
 31
0.0
  0
LINE
  5
102
  8
DATA
  6
CONTINUOUS
 62
     7
 10
-312.65000000003158
 20
-356.50000000004042
 30
0.0
 11
-287.35000000003163
 21
-356.50000000004042
 31
0.0
  0
LINE
  5
103
  8
DATA
  6
CONTINUOUS
 62
     7
 10
-312.0000000000316
 20
-346.00000000004042
 30
0.0
 11
-288.0000000000316
 21
-346.00000000004042
 31
0.0
  0
LINE
  5
104
  8
DATA
  6
CONTINUOUS
 62
     7
 10
-312.0000000000316
 20
-348.5000000000403
 30
0.0
 11
-312.0000000000316
 21
-346.00000000004042
 31
0.0
  0
LINE
  5
105
  8
DATA
  6
CONTINUOUS
 62
     7
 10
-288.0000000000316
 20
-348.5000000000403
 30
0.0
 11
-288.0000000000316
 21
-346.00000000004042
 31
0.0
  0
LINE
  5
106
  8
DATA
  6
CONTINUOUS
 62
     7
 10
-312.65000000003158
 20
-348.5000000000403
 30
0.0
 11
-287.35000000003163
 21
-348.5000000000403
 31
0.0
  0
LINE
  5
107
  8
DATA
  6
CONTINUOUS
 62
     7
 10
-309.2500000000316
 20
-346.00000000004042
 30
0.0
 11
-309.2500000000316
 21
-342.00000000004042
 31
0.0
  0
LINE
  5
108
  8
DATA
  6
CONTINUOUS
 62
     7
 10
-290.7500000000316
 20
-342.00000000004042
 30
0.0
 11
-290.7500000000316
 21
-346.00000000004042
 31
0.0
  0
LINE
  5
109
  8
DATA
  6
CONTINUOUS
 62
     7
 10
-309.2500000000316
 20
-342.00000000004042
 30
0.0
 11
-290.7500000000316
 21
-342.00000000004042
 31
0.0
  0
LINE
  5
10A
  8
DATA
  6
CONTINUOUS
 62
     7
 10
-307.85000000003163
 20
-342.00000000004042
 30
0.0
 11
-307.85000000003163
 21
-329.50000000004042
 31
0.0
  0
LINE
  5
10B
  8
DATA
  6
CONTINUOUS
 62
     7
 10
-292.1500000000317
 20
-329.50000000004042
 30
0.0
 11
-292.1500000000317
 21
-342.00000000004042
 31
0.0
  0
LINE
  5
10C
  8
DATA
  6
CONTINUOUS
 62
     7
 10
-309.2500000000316
 20
-346.00000000004042
 30
0.0
 11
-290.7500000000316
 21
-344.90000000004039
 31
0.0
  0
LINE
  5
10D
  8
DATA
  6
CONTINUOUS
 62
     7
 10
-309.2500000000316
 20
-345.00000000004042
 30
0.0
 11
-290.7500000000316
 21
-343.90000000004051
 31
0.0
  0
LINE
  5
10E
  8
DATA
  6
CONTINUOUS
 62
     7
 10
-309.2500000000316
 20
-344.00000000004042
 30
0.0
 11
-290.7500000000316
 21
-342.90000000004039
 31
0.0
  0
LINE
  5
10F
  8
DATA
  6
CONTINUOUS
 62
     7
 10
-309.2500000000316
 20
-343.00000000004042
 30
0.0
 11
-290.7500000000316
 21
-341.90000000004051
 31
0.0
  0
LINE
  5
110
  8
DATA
  6
CONTINUOUS
 62
     7
 10
-310.45000000003159
 20
-356.50000000004042
 30
0.0
 11
-310.45000000003159
 21
-348.5000000000403
 31
0.0
  0
LINE
  5
111
  8
DATA
  6
CONTINUOUS
 62
     7
 10
-308.2500000000316
 20
-356.50000000004042
 30
0.0
 11
-308.2500000000316
 21
-348.5000000000403
 31
0.0
  0
LINE
  5
112
  8
DATA
  6
CONTINUOUS
 62
     7
 10
-306.05000000003162
 20
-356.50000000004042
 30
0.0
 11
-306.05000000003162
 21
-348.5000000000403
 31
0.0
  0
LINE
  5
113
  8
DATA
  6
CONTINUOUS
 62
     7
 10
-303.85000000003163
 20
-356.50000000004042
 30
0.0
 11
-303.85000000003163
 21
-348.5000000000403
 31
0.0
  0
LINE
  5
114
  8
DATA
  6
CONTINUOUS
 62
     7
 10
-301.65000000003158
 20
-356.50000000004042
 30
0.0
 11
-301.65000000003158
 21
-348.5000000000403
 31
0.0
  0
LINE
  5
115
  8
DATA
  6
CONTINUOUS
 62
     7
 10
-299.45000000003159
 20
-356.50000000004042
 30
0.0
 11
-299.45000000003159
 21
-348.5000000000403
 31
0.0
  0
LINE
  5
116
  8
DATA
  6
CONTINUOUS
 62
     7
 10
-297.2500000000316
 20
-356.50000000004042
 30
0.0
 11
-297.2500000000316
 21
-348.5000000000403
 31
0.0
  0
LINE
  5
117
  8
DATA
  6
CONTINUOUS
 62
     7
 10
-295.05000000003162
 20
-356.50000000004042
 30
0.0
 11
-295.05000000003162
 21
-348.5000000000403
 31
0.0
  0
LINE
  5
118
  8
DATA
  6
CONTINUOUS
 62
     7
 10
-292.85000000003163
 20
-356.50000000004042
 30
0.0
 11
-292.85000000003163
 21
-348.5000000000403
 31
0.0
  0
LINE
  5
119
  8
DATA
  6
CONTINUOUS
 62
     7
 10
-290.6500000000317
 20
-356.50000000004042
 30
0.0
 11
-290.6500000000317
 21
-348.5000000000403
 31
0.0
  0
LINE
  5
11A
  8
DATA
  6
CONTINUOUS
 62
     7
 10
-288.45000000003171
 20
-356.50000000004042
 30
0.0
 11
-288.45000000003171
 21
-348.5000000000403
 31
0.0
  0
LINE
  5
11B
  8
DATA
  6
CONTINUOUS
 62
     7
 10
-301.6400000000317
 20
-342.00000000004042
 30
0.0
 11
-301.6400000000317
 21
-335.00000000004042
 31
0.0
  0
LINE
  5
11C
  8
DATA
  6
CONTINUOUS
 62
     7
 10
-298.36000000003162
 20
-335.00000000004042
 30
0.0
 11
-298.36000000003162
 21
-342.00000000004042
 31
0.0
  0
LINE
  5
11D
  8
DATA
  6
CONTINUOUS
 62
     7
 10
-301.6400000000317
 20
-335.00000000004042
 30
0.0
 11
-298.36000000003162
 21
-335.00000000004042
 31
0.0
  0
LINE
  5
11E
  8
DATA
  6
CONTINUOUS
 62
     7
 10
-295.85000000003163
 20
-342.00000000004042
 30
0.0
 11
-295.85000000003163
 21
-329.50000000004042
 31
0.0
  0
LINE
  5
11F
  8
DATA
  6
CONTINUOUS
 62
     7
 10
-295.2321827123032
 20
-342.00000000004042
 30
0.0
 11
-295.2321827123032
 21
-329.50000000004042
 31
0.0
  0
LINE
  5
120
  8
DATA
  6
CONTINUOUS
 62
     7
 10
-309.5000000000316
 20
-366.70000000004029
 30
0.0
 11
-290.5000000000316
 21
-366.70000000004029
 31
0.0
  0
LINE
  5
121
  8
DATA
  6
CONTINUOUS
 62
     7
 10
-300.0000000000316
 20
-366.70000000004029
 30
0.0
 11
-300.0000000000316
 21
-364.50000000004042
 31
0.0
  0
LINE
  5
122
  8
DATA
  6
CONTINUOUS
 62
     7
 10
-309.5000000000316
 20
-366.70000000004029
 30
0.0
 11
-309.09290842588678
 21
-377.12154429814848
 31
0.0
  0
LINE
  5
123
  8
DATA
  6
CONTINUOUS
 62
     7
 10
-290.5000000000316
 20
-366.70000000004029
 30
0.0
 11
-290.90709157417638
 21
-377.12154429814819
 31
0.0
  0
LINE
  5
124
  8
DATA
  6
CONTINUOUS
 62
     7
 10
-304.9000000000317
 20
-400.0000000000403
 30
0.0
 11
-308.5331907200229
 21
-381.83404640008342
 31
0.0
  0
LINE
  5
125
  8
DATA
  6
CONTINUOUS
 62
     7
 10
-295.10000000003163
 20
-400.0000000000403
 30
0.0
 11
-291.46680928004031
 21
-381.83404640008342
 31
0.0
  0
LINE
  5
126
  8
DATA
  6
CONTINUOUS
 62
     7
 10
-308.9050553071034
 20
-379.50000000004042
 30
0.0
 11
-291.09494469295959
 21
-379.50000000004042
 31
0.0
  0
LINE
  5
127
  8
DATA
  6
CONTINUOUS
 62
     7
 10
-308.44000000003172
 20
-382.30000000004031
 30
0.0
 11
-291.56000000003161
 21
-382.30000000004031
 31
0.0
  0
LINE
  5
128
  8
DATA
  6
CONTINUOUS
 62
     7
 10
-308.04000000003163
 20
-384.30000000004031
 30
0.0
 11
-291.9600000000317
 21
-384.30000000004031
 31
0.0
  0
LINE
  5
129
  8
DATA
  6
CONTINUOUS
 62
     7
 10
-307.6400000000317
 20
-386.30000000004031
 30
0.0
 11
-292.36000000003162
 21
-386.30000000004031
 31
0.0
  0
LINE
  5
12A
  8
DATA
  6
CONTINUOUS
 62
     7
 10
-307.24000000003161
 20
-388.30000000004031
 30
0.0
 11
-292.7600000000316
 21
-388.30000000004031
 31
0.0
  0
LINE
  5
12B
  8
DATA
  6
CONTINUOUS
 62
     7
 10
-306.84000000003169
 20
-390.30000000004031
 30
0.0
 11
-293.16000000003157
 21
-390.30000000004031
 31
0.0
  0
LINE
  5
12C
  8
DATA
  6
CONTINUOUS
 62
     7
 10
-306.44000000003172
 20
-392.30000000004031
 30
0.0
 11
-293.56000000003161
 21
-392.30000000004031
 31
0.0
  0
ARC
  5
12D
  8
DATA
  6
CONTINUOUS
 62
     7
 10
-279.11577044929538
 20
-375.95056234593801
 30
0.0
 40
30.000000000000011
 50
182.23697906343739
 51
191.30993247401989
  0
ARC
  5
12E
  8
DATA
  6
CONTINUOUS
 62
     7
 10
-320.88422955076783
 20
-375.95056234593773
 30
0.0
 40
30.000000000000028
 50
348.69006752597909
 51
357.76302093656221
  0
LINE
  5
12F
  8
DATA
  6
CONTINUOUS
 62
     7
 10
-304.9000000000317
 20
-400.0000000000403
 30
0.0
 11
-295.10000000003163
 21
-400.0000000000403
 31
0.0
  0
LINE
  5
130
  8
DATA
  6
CONTINUOUS
 62
     7
 10
-311.0000000000316
 20
-366.70000000004029
 30
0.0
 11
-289.0000000000316
 21
-366.70000000004029
 31
0.0
  0
LINE
  5
131
  8
DATA
  6
CONTINUOUS
 62
     7
 10
-311.0000000000316
 20
-366.70000000004029
 30
0.0
 11
-311.0000000000316
 21
-364.50000000004042
 31
0.0
  0
LINE
  5
132
  8
DATA
  6
CONTINUOUS
 62
     7
 10
-289.0000000000316
 20
-366.70000000004029
 30
0.0
 11
-289.0000000000316
 21
-364.50000000004042
 31
0.0
  0
TEXT
  5
133
  8
DATA
 62
     7
 10
-347.67419779902582
 20
-615.09286708363663
 30
0.0
 40
16.288411458333329
  1
PS3F-LOCL
 41
0.7
 11
-347.67419779902582
 21
-598.80445562530315
 31
0.0
 73
     3
  0
CIRCLE
  5
134
  8
DATA
  6
CONTINUOUS
 62
     7
 10
-300.0000000000316
 20
-554.19763070417821
 30
0.0
 40
1.2849999999999679
  0
CIRCLE
  5
135
  8
DATA
  6
CONTINUOUS
 62
     7
 10
-303.87641407279978
 20
-551.76059232390116
 30
0.0
 40
1.2849999999999679
  0
CIRCLE
  5
136
  8
DATA
  6
CONTINUOUS
 62
     7
 10
-296.12358592726338
 20
-551.76059232390116
 30
0.0
 40
1.2849999999999679
  0
ARC
  5
137
  8
DATA
  6
CONTINUOUS
 62
     7
 10
-304.95000000003142
 20
-544.02529420355495
 30
0.0
 40
1.13137084989845
 50
40.10783596561263
 51
219.17516296021469
  0
TEXT
  5
138
  8
DATA
 62
     7
 10
-40.016778099452267
 20
-492.99609487820783
 30
0.0
 40
16.288411458333329
  1
取付け寸法図
 41
0.7
 11
-40.016778099452267
 21
-476.70768341987451
 31
0.0
 73
     3
  0
CIRCLE
  5
139
  8
DATA
  6
CONTINUOUS
 62
     7
 10
100.0000000000271
 20
-380.0002917201312
 30
0.0
 40
22.5
  0
CIRCLE
  5
13A
  8
DATA
  6
CONTINUOUS
 62
     7
 10
100.0000000000271
 20
-362.30029172013121
 30
0.0
 40
1.6000000000000221
  0
CIRCLE
  5
13B
  8
DATA
  6
CONTINUOUS
 62
     7
 10
84.671350353042584
 20
-388.85029172013122
 30
0.0
 40
1.6000000000000649
  0
CIRCLE
  5
13C
  8
DATA
  6
CONTINUOUS
 62
     7
 10
115.3286496470115
 20
-388.85029172013122
 30
0.0
 40
1.6000000000000221
  0
POLYLINE
  5
13D
  8
DATA
  6
CONTINUOUS
 62
     7
 66
     1
 10
0.0
 20
0.0
 30
0.0
 70
     1
  0
VERTEX
  5
31A
  8
DATA
  6
CONTINUOUS
 62
     7
 10
100.0000000000271
 20
-369.0002917201312
 30
0.0
  0
VERTEX
  5
31B
  8
DATA
  6
CONTINUOUS
 62
     7
 10
90.473720558398284
 20
-374.5002917201312
 30
0.0
  0
VERTEX
  5
31C
  8
DATA
  6
CONTINUOUS
 62
     7
 10
90.473720558398284
 20
-385.5002917201312
 30
0.0
  0
VERTEX
  5
31D
  8
DATA
  6
CONTINUOUS
 62
     7
 10
100.0000000000271
 20
-391.0002917201312
 30
0.0
  0
VERTEX
  5
31E
  8
DATA
  6
CONTINUOUS
 62
     7
 10
109.5262794416559
 20
-385.5002917201312
 30
0.0
  0
VERTEX
  5
31F
  8
DATA
  6
CONTINUOUS
 62
     7
 10
109.5262794416559
 20
-374.5002917201312
 30
0.0
  0
SEQEND
  5
320
  8
DATA
  6
CONTINUOUS
 62
     7
  0
CIRCLE
  5
146
  8
DATA
  6
CONTINUOUS
 62
     7
 10
100.0000000000271
 20
-380.0002917201312
 30
0.0
 40
9.4022603665288198
  0
CIRCLE
  5
147
  8
DATA
  6
STYLE_06
 62
     7
 10
100.0000000000271
 20
-380.0002917201312
 30
0.0
 40
18.0
  0
CIRCLE
  5
148
  8
DATA
  6
CONTINUOUS
 62
     7
 10
100.0000000000271
 20
-380.0002917201312
 30
0.0
 40
4.6999999999999877
  0
CIRCLE
  5
149
  8
DATA
  6
CONTINUOUS
 62
     7
 10
100.0000000000271
 20
-380.0002917201312
 30
0.0
 40
1.5
  0
LINE
  5
14A
  8
DATA
  6
CONTINUOUS
 62
     7
 10
-309.50000000002223
 20
-200.00000000001111
 30
0.0
 11
-309.50000000002223
 21
-94.964581237426145
 31
0.0
  0
LINE
  5
14B
  8
DATA
  6
CONTINUOUS
 62
     7
 10
-290.50000000002223
 20
-200.00000000001111
 30
0.0
 11
-290.50000000002223
 21
-94.964581237426145
 31
0.0
  0
CIRCLE
  5
14C
  8
DATA
  6
CONTINUOUS
 62
     7
 10
-300.00000000002223
 20
-183.00000000001111
 30
0.0
 40
2.3000000000000109
  0
LINE
  5
14D
  8
DATA
  6
CONTINUOUS
 62
     7
 10
-300.85842879730251
 20
-183.85842879729131
 30
0.0
 11
-299.141571202742
 21
-182.14157120273069
 31
0.0
  0
LINE
  5
14E
  8
DATA
  6
CONTINUOUS
 62
     7
 10
-299.141571202742
 20
-183.85842879729131
 30
0.0
 11
-300.85842879730251
 21
-182.14157120273069
 31
0.0
  0
TEXT
  5
14F
  8
DATA
 62
     7
 10
-306.28623733475678
 20
-198.2010959171084
 30
0.0
 40
2.0849166666666661
  1
GN 50 ESP
 41
0.7
 11
-306.28623733475678
 21
-196.1161792504418
 31
0.0
 73
     3
  0
ARC
  5
150
  8
DATA
  6
CONTINUOUS
 62
     7
 10
-300.00000000002223
 20
-143.9662443885538
 30
0.0
 40
3.3999999999999768
 50
0.0
 51
180.0
  0
ARC
  5
151
  8
DATA
  6
CONTINUOUS
 62
     7
 10
-300.00000000002223
 20
-149.16624438855379
 30
0.0
 40
3.3999999999999768
 50
180.0
 51
0.0
  0
LINE
  5
152
  8
DATA
  6
CONTINUOUS
 62
     7
 10
-303.40000000002232
 20
-149.16624438855379
 30
0.0
 11
-303.40000000002232
 21
-143.9662443885538
 31
0.0
  0
LINE
  5
153
  8
DATA
  6
CONTINUOUS
 62
     7
 10
-296.60000000002231
 20
-149.16624438855379
 30
0.0
 11
-296.60000000002231
 21
-143.9662443885538
 31
0.0
  0
TEXT
  5
154
  8
DATA
 62
     7
 10
-303.53175083760158
 20
-156.54627105522039
 30
0.0
 40
2.0849166666666661
  1
ON/OFF
 41
0.7
 11
-303.53175083760158
 21
-154.46135438855379
 31
0.0
 73
     3
  0
TEXT
  5
155
  8
DATA
 62
     7
 10
-308.27017174630828
 20
-159.9153400066044
 30
0.0
 40
2.0849166666666661
  1
PROGRAMMABLE
 41
0.7
 11
-308.27017174630828
 21
-157.83042333993771
 31
0.0
 73
     3
  0
LINE
  5
156
  8
DATA
  6
CONTINUOUS
 62
     7
 10
-304.75000000002223
 20
-45.000000000011049
 30
0.0
 11
-295.25000000002223
 21
-45.000000000011049
 31
0.0
  0
LINE
  5
157
  8
DATA
  6
CONTINUOUS
 62
     7
 10
-304.75000000002223
 20
-55.000000000011063
 30
0.0
 11
-304.75000000002223
 21
-45.000000000011049
 31
0.0
  0
ARC
  5
158
  8
DATA
  6
CONTINUOUS
 62
     7
 10
-422.02797297299333
 20
-54.824369369380712
 30
0.0
 40
117.27810448147309
 50
347.0754916853241
 51
359.91419627990967
  0
ARC
  5
159
  8
DATA
  6
CONTINUOUS
 62
     7
 10
-220.3455685175883
 20
-100.91574166679401
 30
0.0
 40
89.604113614228197
 50
167.0595793513568
 51
171.35764532212571
  0
ARC
  5
15A
  8
DATA
  6
CONTINUOUS
 62
     7
 10
-259.50000000002171
 20
-94.964581237426145
 30
0.0
 40
50.000000000000561
 50
171.35764532212579
 51
180.0
  0
LINE
  5
15B
  8
DATA
  6
CONTINUOUS
 62
     7
 10
-295.25000000002223
 20
-55.000000000011063
 30
0.0
 11
-295.25000000002223
 21
-45.000000000011049
 31
0.0
  0
ARC
  5
15C
  8
DATA
  6
CONTINUOUS
 62
     7
 10
-177.9720270270513
 20
-54.824369369380712
 30
0.0
 40
117.27810448147309
 50
180.08580372009021
 51
192.9245083146759
  0
ARC
  5
15D
  8
DATA
  6
CONTINUOUS
 62
     7
 10
-379.65443148245629
 20
-100.91574166679401
 30
0.0
 40
89.604113614228197
 50
8.6423546778743336
 51
12.940420648643149
  0
ARC
  5
15E
  8
DATA
  6
CONTINUOUS
 62
     7
 10
-340.50000000002279
 20
-94.964581237426145
 30
0.0
 40
50.000000000000568
 50
0.0
 51
8.6423546778742093
  0
LINE
  5
15F
  8
DATA
  6
CONTINUOUS
 62
     7
 10
-304.75000000002223
 20
-49.00000000001107
 30
0.0
 11
-295.25000000002223
 21
-49.00000000001107
 31
0.0
  0
LINE
  5
160
  8
DATA
  6
CONTINUOUS
 62
     7
 10
-304.75000000002223
 20
-51.000000000011063
 30
0.0
 11
-295.25000000002223
 21
-51.000000000011063
 31
0.0
  0
LINE
  5
161
  8
DATA
  6
CONTINUOUS
 62
     7
 10
-304.75000000002223
 20
-53.500000000011063
 30
0.0
 11
-295.25000000002223
 21
-53.500000000011063
 31
0.0
  0
LINE
  5
162
  8
DATA
  6
CONTINUOUS
 62
     7
 10
-304.75000000002223
 20
-55.500000000011063
 30
0.0
 11
-295.25000000002223
 21
-55.500000000011063
 31
0.0
  0
LINE
  5
163
  8
DATA
  6
CONTINUOUS
 62
     7
 10
-303.87500000002223
 20
-45.000000000011049
 30
0.0
 11
-303.87500000002223
 21
9.9999999999889422
 31
0.0
  0
LINE
  5
164
  8
DATA
  6
CONTINUOUS
 62
     7
 10
-303.87500000002223
 20
292.99999999998892
 30
0.0
 11
-303.87500000002223
 21
347.99999999998892
 31
0.0
  0
LINE
  5
165
  8
DATA
  6
CONTINUOUS
 62
     7
 10
-296.12500000002223
 20
-45.000000000011049
 30
0.0
 11
-296.12500000002223
 21
9.9999999999889422
 31
0.0
  0
LINE
  5
166
  8
DATA
  6
CONTINUOUS
 62
     7
 10
-296.12500000002223
 20
292.99999999998892
 30
0.0
 11
-296.12500000002223
 21
347.99999999998892
 31
0.0
  0
LINE
  5
167
  8
DATA
  6
CONTINUOUS
 62
     7
 10
-304.75000000002223
 20
9.9999999999889422
 30
0.0
 11
-295.25000000002223
 21
9.9999999999889422
 31
0.0
  0
LINE
  5
168
  8
DATA
  6
CONTINUOUS
 62
     7
 10
-304.75000000002223
 20
292.99999999998892
 30
0.0
 11
-295.25000000002223
 21
292.99999999998892
 31
0.0
  0
LINE
  5
169
  8
DATA
  6
CONTINUOUS
 62
     7
 10
-304.75000000002223
 20
9.9999999999889422
 30
0.0
 11
-304.75000000002223
 21
292.99999999998892
 31
0.0
  0
LINE
  5
16A
  8
DATA
  6
CONTINUOUS
 62
     7
 10
-295.25000000002223
 20
9.9999999999889422
 30
0.0
 11
-295.25000000002223
 21
292.99999999998892
 31
0.0
  0
LINE
  5
16B
  8
DATA
  6
CONTINUOUS
 62
     7
 10
-304.75000000002223
 20
347.99999999998892
 30
0.0
 11
-295.25000000002223
 21
347.99999999998892
 31
0.0
  0
LINE
  5
16C
  8
DATA
  6
CONTINUOUS
 62
     7
 10
-307.00000000002223
 20
397.9999999999888
 30
0.0
 11
-293.00000000002223
 21
397.9999999999888
 31
0.0
  0
LINE
  5
16D
  8
DATA
  6
CONTINUOUS
 62
     7
 10
-304.75000000002223
 20
347.99999999998892
 30
0.0
 11
-304.75000000002223
 21
357.99999999998892
 31
0.0
  0
LINE
  5
16E
  8
DATA
  6
CONTINUOUS
 62
     7
 10
-295.25000000002223
 20
347.99999999998892
 30
0.0
 11
-295.25000000002223
 21
357.99999999998892
 31
0.0
  0
LINE
  5
16F
  8
DATA
  6
CONTINUOUS
 62
     7
 10
-304.75000000002223
 20
357.99999999998892
 30
0.0
 11
-304.75000000002223
 21
369.54999999998842
 31
0.0
  0
ARC
  5
170
  8
DATA
  6
CONTINUOUS
 62
     7
 10
-449.5431279620849
 20
361.89976303316672
 30
0.0
 40
144.99508967784661
 50
3.0244466749958701
 51
8.1769856059160144
  0
ARC
  5
171
  8
DATA
  6
CONTINUOUS
 62
     7
 10
-256.5304672069052
 20
389.63417825400558
 30
0.0
 40
50.000000002473321
 50
181.98252386108439
 51
188.1769856056101
  0
LINE
  5
172
  8
DATA
  6
CONTINUOUS
 62
     7
 10
-295.25000000002223
 20
357.99999999998892
 30
0.0
 11
-295.25000000002223
 21
369.54999999998842
 31
0.0
  0
ARC
  5
173
  8
DATA
  6
CONTINUOUS
 62
     7
 10
-150.4568720379597
 20
361.89976303316672
 30
0.0
 40
144.99508967784661
 50
171.823014394084
 51
176.97555332500411
  0
ARC
  5
174
  8
DATA
  6
CONTINUOUS
 62
     7
 10
-343.46953279313942
 20
389.63417825400558
 30
0.0
 40
50.000000002473357
 50
351.82301439438982
 51
358.0174761389157
  0
LINE
  5
175
  8
DATA
  6
CONTINUOUS
 62
     7
 10
-304.75000000002223
 20
13.99999999998894
 30
0.0
 11
-295.25000000002223
 21
13.99999999998894
 31
0.0
  0
LINE
  5
176
  8
DATA
  6
CONTINUOUS
 62
     7
 10
-304.75000000002223
 20
15.99999999998894
 30
0.0
 11
-295.25000000002223
 21
15.99999999998894
 31
0.0
  0
LINE
  5
177
  8
DATA
  6
CONTINUOUS
 62
     7
 10
-304.75000000002223
 20
18.49999999998894
 30
0.0
 11
-295.25000000002223
 21
18.49999999998894
 31
0.0
  0
LINE
  5
178
  8
DATA
  6
CONTINUOUS
 62
     7
 10
-304.75000000002223
 20
20.49999999998894
 30
0.0
 11
-295.25000000002223
 21
20.49999999998894
 31
0.0
  0
LINE
  5
179
  8
DATA
  6
CONTINUOUS
 62
     7
 10
-304.75000000002223
 20
288.99999999998892
 30
0.0
 11
-295.25000000002223
 21
288.99999999998892
 31
0.0
  0
LINE
  5
17A
  8
DATA
  6
CONTINUOUS
 62
     7
 10
-304.75000000002223
 20
286.99999999998892
 30
0.0
 11
-295.25000000002223
 21
286.99999999998892
 31
0.0
  0
LINE
  5
17B
  8
DATA
  6
CONTINUOUS
 62
     7
 10
-304.75000000002223
 20
284.49999999998892
 30
0.0
 11
-295.25000000002223
 21
284.49999999998892
 31
0.0
  0
LINE
  5
17C
  8
DATA
  6
CONTINUOUS
 62
     7
 10
-304.75000000002223
 20
282.49999999998892
 30
0.0
 11
-295.25000000002223
 21
282.49999999998892
 31
0.0
  0
LINE
  5
17D
  8
DATA
  6
CONTINUOUS
 62
     7
 10
-304.75000000002223
 20
351.99999999998892
 30
0.0
 11
-295.25000000002223
 21
351.99999999998892
 31
0.0
  0
LINE
  5
17E
  8
DATA
  6
CONTINUOUS
 62
     7
 10
-304.75000000002223
 20
353.99999999998892
 30
0.0
 11
-295.25000000002223
 21
353.99999999998892
 31
0.0
  0
LINE
  5
17F
  8
DATA
  6
CONTINUOUS
 62
     7
 10
-304.75000000002223
 20
356.49999999998892
 30
0.0
 11
-295.25000000002223
 21
356.49999999998892
 31
0.0
  0
LINE
  5
180
  8
DATA
  6
CONTINUOUS
 62
     7
 10
-304.75000000002223
 20
358.49999999998892
 30
0.0
 11
-295.25000000002223
 21
358.49999999998892
 31
0.0
  0
LINE
  5
181
  8
DATA
  6
CONTINUOUS
 62
     7
 10
-305.21401933150742
 20
388.69999999998902
 30
0.0
 11
-294.78598066853721
 21
388.69999999998902
 31
0.0
  0
LINE
  5
182
  8
DATA
  6
CONTINUOUS
 62
     7
 10
-305.21401933150742
 20
386.39999999998878
 30
0.0
 11
-294.78598066853721
 21
386.39999999998878
 31
0.0
  0
LINE
  5
183
  8
DATA
  6
CONTINUOUS
 62
     7
 10
-305.21401933150742
 20
388.69999999998902
 30
0.0
 11
-305.21401933150742
 21
386.39999999998878
 31
0.0
  0
LINE
  5
184
  8
DATA
  6
CONTINUOUS
 62
     7
 10
-294.78598066853721
 20
388.69999999998902
 30
0.0
 11
-294.78598066853721
 21
386.39999999998878
 31
0.0
  0
CIRCLE
  5
185
  8
DATA
  6
CONTINUOUS
 62
     7
 10
-300.00000000002223
 20
429.9999999999888
 30
0.0
 40
7.0
  0
CIRCLE
  5
186
  8
DATA
  6
CONTINUOUS
 62
     7
 10
-300.00000000002223
 20
429.9999999999888
 30
0.0
 40
1.4250000000000109
  0
CIRCLE
  5
187
  8
DATA
  6
CONTINUOUS
 62
     7
 10
-300.00000000002223
 20
429.9999999999888
 30
0.0
 40
6.5
  0
CIRCLE
  5
188
  8
DATA
  6
CONTINUOUS
 62
     7
 10
-300.00000000002223
 20
-250.0000000000507
 30
0.0
 40
9.5
  0
LINE
  5
189
  8
DATA
  6
CONTINUOUS
 62
     7
 10
-303.40000000002232
 20
-239.12926158659249
 30
0.0
 11
-303.40000000002232
 21
-239.7400000000514
 31
0.0
  0
LINE
  5
18A
  8
DATA
  6
CONTINUOUS
 62
     7
 10
-296.65048818692389
 20
-239.11007476898641
 30
0.0
 11
-296.65048818692389
 21
-239.80000000005089
 31
0.0
  0
ARC
  5
18B
  8
DATA
  6
CONTINUOUS
 62
     7
 10
-300.00000000002223
 20
-248.0000000000507
 30
0.0
 40
9.5000000000000142
 50
69.354787441978644
 51
110.9709607722327
  0
ARC
  5
18C
  8
DATA
  6
CONTINUOUS
 62
     7
 10
-300.08100721033162
 20
-246.04289693291449
 30
0.0
 40
7.1233575569615919
 50
61.21087300930192
 51
117.7704885126289
  0
LINE
  5
18D
  8
DATA
  6
CONTINUOUS
 62
     7
 10
-302.80271455235641
 20
-239.4600000000508
 30
0.0
 11
-302.80271455235641
 21
-240.92284234260421
 31
0.0
  0
LINE
  5
18E
  8
DATA
  6
CONTINUOUS
 62
     7
 10
-297.19728544768827
 20
-239.52934400997171
 30
0.0
 11
-297.19728544768827
 21
-240.92284234260421
 31
0.0
  0
ARC
  5
18F
  8
DATA
  6
CONTINUOUS
 62
     7
 10
-300.00000000002149
 20
-250.00000000005031
 30
0.0
 40
7.999999999999214
 50
62.443660956423678
 51
48.927249057892979
  0
CIRCLE
  5
190
  8
DATA
  6
CONTINUOUS
 62
     7
 10
-300.00000000002223
 20
-254.51847639919629
 30
0.0
 40
1.199999999999988
  0
CIRCLE
  5
191
  8
DATA
  6
CONTINUOUS
 62
     7
 10
-304.39478429161528
 20
-251.05000000005069
 30
0.0
 40
1.1999999999999309
  0
CIRCLE
  5
192
  8
DATA
  6
CONTINUOUS
 62
     7
 10
-295.60521570842928
 20
-251.05000000005069
 30
0.0
 40
1.1999999999999309
  0
ARC
  5
193
  8
DATA
  6
CONTINUOUS
 62
     7
 10
-295.7115359539045
 20
-243.71677372075419
 30
0.0
 40
1.0000000000000091
 50
345.39115668930378
 51
125.9797533250082
  0
LINE
  5
194
  8
DATA
  6
CONTINUOUS
 62
     7
 10
-309.50000000002223
 20
-200.00000000001111
 30
0.0
 11
-290.50000000002223
 21
-200.00000000001111
 31
0.0
  0
LINE
  5
195
  8
DATA
  6
CONTINUOUS
 62
     7
 10
-306.50053848140038
 20
387.90444501758088
 30
0.0
 11
-307.00000000002223
 21
397.9999999999888
 31
0.0
  0
LINE
  5
196
  8
DATA
  6
CONTINUOUS
 62
     7
 10
-293.49946151864413
 20
387.90444501758088
 30
0.0
 11
-293.00000000002223
 21
397.9999999999888
 31
0.0
  0
LINE
  5
197
  8
DATA
  6
CONTINUOUS
 62
     7
 10
-50.0
 20
-500.0
 30
0.0
 11
100.0
 21
-500.0
 31
0.0
  0
LINE
  5
198
  8
DATA
  6
CONTINUOUS
 62
     7
 10
-303.87500000002223
 20
-45.000000000011049
 30
0.0
 11
-296.12500000002223
 21
-42.602577873264217
 31
0.0
  0
LINE
  5
199
  8
DATA
  6
CONTINUOUS
 62
     7
 10
-303.87500000002223
 20
-41.500000000011063
 30
0.0
 11
-296.12500000002223
 21
-39.102577873264217
 31
0.0
  0
LINE
  5
19A
  8
DATA
  6
CONTINUOUS
 62
     7
 10
-303.87500000002223
 20
-38.000000000011049
 30
0.0
 11
-296.12500000002223
 21
-35.602577873264231
 31
0.0
  0
LINE
  5
19B
  8
DATA
  6
CONTINUOUS
 62
     7
 10
-303.87500000002223
 20
-34.500000000011063
 30
0.0
 11
-296.12500000002223
 21
-32.102577873264231
 31
0.0
  0
LINE
  5
19C
  8
DATA
  6
CONTINUOUS
 62
     7
 10
-303.87500000002223
 20
-31.000000000011049
 30
0.0
 11
-296.12500000002223
 21
-28.602577873264231
 31
0.0
  0
LINE
  5
19D
  8
DATA
  6
CONTINUOUS
 62
     7
 10
-303.87500000002223
 20
-27.500000000011049
 30
0.0
 11
-296.12500000002223
 21
-25.102577873264231
 31
0.0
  0
LINE
  5
19E
  8
DATA
  6
CONTINUOUS
 62
     7
 10
-303.87500000002223
 20
-24.000000000011049
 30
0.0
 11
-296.12500000002223
 21
-21.602577873264242
 31
0.0
  0
LINE
  5
19F
  8
DATA
  6
CONTINUOUS
 62
     7
 10
-303.87500000002223
 20
-20.50000000001106
 30
0.0
 11
-296.12500000002223
 21
-18.102577873264231
 31
0.0
  0
LINE
  5
1A0
  8
DATA
  6
CONTINUOUS
 62
     7
 10
-303.87500000002223
 20
-17.000000000011049
 30
0.0
 11
-296.12500000002223
 21
-14.602577873264231
 31
0.0
  0
LINE
  5
1A1
  8
DATA
  6
CONTINUOUS
 62
     7
 10
-303.87500000002223
 20
-13.500000000011051
 30
0.0
 11
-296.12500000002223
 21
-11.102577873264231
 31
0.0
  0
LINE
  5
1A2
  8
DATA
  6
CONTINUOUS
 62
     7
 10
-303.87500000002223
 20
-10.000000000011051
 30
0.0
 11
-296.12500000002223
 21
-7.6025778732642291
 31
0.0
  0
LINE
  5
1A3
  8
DATA
  6
CONTINUOUS
 62
     7
 10
-303.87500000002223
 20
-6.500000000011056
 30
0.0
 11
-296.12500000002223
 21
-4.10257787326423
 31
0.0
  0
LINE
  5
1A4
  8
DATA
  6
CONTINUOUS
 62
     7
 10
-303.87500000002223
 20
-3.000000000011056
 30
0.0
 11
-296.12500000002223
 21
-0.6025778732642309
 31
0.0
  0
LINE
  5
1A5
  8
DATA
  6
CONTINUOUS
 62
     7
 10
-303.87500000002223
 20
0.499999999988944
 30
0.0
 11
-296.12500000002223
 21
2.8974221267357678
 31
0.0
  0
LINE
  5
1A6
  8
DATA
  6
CONTINUOUS
 62
     7
 10
-303.87500000002223
 20
3.9999999999889431
 30
0.0
 11
-296.12500000002223
 21
6.3974221267357692
 31
0.0
  0
LINE
  5
1A7
  8
DATA
  6
CONTINUOUS
 62
     7
 10
-303.87500000002223
 20
7.4999999999889431
 30
0.0
 11
-296.12500000002223
 21
9.8974221267357674
 31
0.0
  0
LINE
  5
1A8
  8
DATA
  6
CONTINUOUS
 62
     7
 10
-303.87500000002223
 20
292.99999999998892
 30
0.0
 11
-296.12500000002223
 21
295.39742212673582
 31
0.0
  0
LINE
  5
1A9
  8
DATA
  6
CONTINUOUS
 62
     7
 10
-303.87500000002223
 20
295.99999999998892
 30
0.0
 11
-296.12500000002223
 21
298.39742212673582
 31
0.0
  0
LINE
  5
1AA
  8
DATA
  6
CONTINUOUS
 62
     7
 10
-303.87500000002223
 20
298.99999999998892
 30
0.0
 11
-296.12500000002223
 21
301.39742212673571
 31
0.0
  0
LINE
  5
1AB
  8
DATA
  6
CONTINUOUS
 62
     7
 10
-303.87500000002223
 20
301.99999999998892
 30
0.0
 11
-296.12500000002223
 21
304.39742212673582
 31
0.0
  0
LINE
  5
1AC
  8
DATA
  6
CONTINUOUS
 62
     7
 10
-303.87500000002223
 20
304.99999999998892
 30
0.0
 11
-296.12500000002223
 21
307.39742212673571
 31
0.0
  0
LINE
  5
1AD
  8
DATA
  6
CONTINUOUS
 62
     7
 10
-303.87500000002223
 20
307.99999999998892
 30
0.0
 11
-296.12500000002223
 21
310.39742212673582
 31
0.0
  0
LINE
  5
1AE
  8
DATA
  6
CONTINUOUS
 62
     7
 10
-303.87500000002223
 20
310.99999999998892
 30
0.0
 11
-296.12500000002223
 21
313.39742212673582
 31
0.0
  0
LINE
  5
1AF
  8
DATA
  6
CONTINUOUS
 62
     7
 10
-303.87500000002223
 20
313.99999999998892
 30
0.0
 11
-296.12500000002223
 21
316.39742212673582
 31
0.0
  0
LINE
  5
1B0
  8
DATA
  6
CONTINUOUS
 62
     7
 10
-303.87500000002223
 20
316.99999999998892
 30
0.0
 11
-296.12500000002223
 21
319.39742212673582
 31
0.0
  0
LINE
  5
1B1
  8
DATA
  6
CONTINUOUS
 62
     7
 10
-303.87500000002223
 20
319.99999999998892
 30
0.0
 11
-296.12500000002223
 21
322.39742212673582
 31
0.0
  0
LINE
  5
1B2
  8
DATA
  6
CONTINUOUS
 62
     7
 10
-303.87500000002223
 20
322.99999999998892
 30
0.0
 11
-296.12500000002223
 21
325.39742212673582
 31
0.0
  0
LINE
  5
1B3
  8
DATA
  6
CONTINUOUS
 62
     7
 10
-303.87500000002223
 20
325.99999999998892
 30
0.0
 11
-296.12500000002223
 21
328.39742212673571
 31
0.0
  0
LINE
  5
1B4
  8
DATA
  6
CONTINUOUS
 62
     7
 10
-303.87500000002223
 20
328.99999999998892
 30
0.0
 11
-296.12500000002223
 21
331.39742212673582
 31
0.0
  0
LINE
  5
1B5
  8
DATA
  6
CONTINUOUS
 62
     7
 10
-303.87500000002223
 20
331.99999999998892
 30
0.0
 11
-296.12500000002223
 21
334.39742212673571
 31
0.0
  0
LINE
  5
1B6
  8
DATA
  6
CONTINUOUS
 62
     7
 10
-303.87500000002223
 20
334.99999999998892
 30
0.0
 11
-296.12500000002223
 21
337.39742212673582
 31
0.0
  0
LINE
  5
1B7
  8
DATA
  6
CONTINUOUS
 62
     7
 10
-303.87500000002223
 20
337.99999999998892
 30
0.0
 11
-296.12500000002223
 21
340.39742212673582
 31
0.0
  0
LINE
  5
1B8
  8
DATA
  6
CONTINUOUS
 62
     7
 10
-303.87500000002223
 20
340.99999999998892
 30
0.0
 11
-296.12500000002223
 21
343.39742212673582
 31
0.0
  0
LINE
  5
1B9
  8
DATA
  6
CONTINUOUS
 62
     7
 10
-303.87500000002223
 20
343.99999999998892
 30
0.0
 11
-296.12500000002223
 21
346.39742212673582
 31
0.0
  0
LINE
  5
1BA
  8
DATA
  6
CONTINUOUS
 62
     7
 10
-303.87500000002223
 20
346.99999999998892
 30
0.0
 11
-300.64236111113519
 21
347.99999999998892
 31
0.0
  0
LINE
  5
1BB
  8
DATA
  6
CONTINUOUS
 62
     7
 10
40.499999999977717
 20
-200.00000000001111
 30
0.0
 11
40.499999999977717
 21
-94.964581237426145
 31
0.0
  0
LINE
  5
1BC
  8
DATA
  6
CONTINUOUS
 62
     7
 10
59.499999999977717
 20
-200.00000000001111
 30
0.0
 11
59.499999999977717
 21
-94.964581237426145
 31
0.0
  0
LINE
  5
1BD
  8
DATA
  6
CONTINUOUS
 62
     7
 10
45.249999999977717
 20
-45.000000000011049
 30
0.0
 11
54.749999999977717
 21
-45.000000000011049
 31
0.0
  0
LINE
  5
1BE
  8
DATA
  6
CONTINUOUS
 62
     7
 10
45.249999999977717
 20
-55.000000000011063
 30
0.0
 11
45.249999999977717
 21
-45.000000000011049
 31
0.0
  0
ARC
  5
1BF
  8
DATA
  6
CONTINUOUS
 62
     7
 10
-72.027972972993254
 20
-54.824369369380712
 30
0.0
 40
117.27810448147309
 50
347.0754916853241
 51
359.91419627990967
  0
ARC
  5
1C0
  8
DATA
  6
CONTINUOUS
 62
     7
 10
129.6544314824117
 20
-100.91574166679401
 30
0.0
 40
89.604113614228197
 50
167.0595793513568
 51
171.35764532212571
  0
ARC
  5
1C1
  8
DATA
  6
CONTINUOUS
 62
     7
 10
90.499999999978286
 20
-94.964581237426145
 30
0.0
 40
50.000000000000561
 50
171.35764532212579
 51
180.0
  0
LINE
  5
1C2
  8
DATA
  6
CONTINUOUS
 62
     7
 10
54.749999999977717
 20
-55.000000000011063
 30
0.0
 11
54.749999999977717
 21
-45.000000000011049
 31
0.0
  0
ARC
  5
1C3
  8
DATA
  6
CONTINUOUS
 62
     7
 10
172.02797297294859
 20
-54.824369369380712
 30
0.0
 40
117.27810448147309
 50
180.08580372009021
 51
192.9245083146759
  0
ARC
  5
1C4
  8
DATA
  6
CONTINUOUS
 62
     7
 10
-29.654431482456289
 20
-100.91574166679401
 30
0.0
 40
89.604113614228197
 50
8.6423546778743336
 51
12.940420648643149
  0
ARC
  5
1C5
  8
DATA
  6
CONTINUOUS
 62
     7
 10
9.4999999999771507
 20
-94.964581237426145
 30
0.0
 40
50.000000000000568
 50
0.0
 51
8.6423546778742093
  0
LINE
  5
1C6
  8
DATA
  6
CONTINUOUS
 62
     7
 10
45.249999999977717
 20
-49.00000000001107
 30
0.0
 11
54.749999999977717
 21
-49.00000000001107
 31
0.0
  0
LINE
  5
1C7
  8
DATA
  6
CONTINUOUS
 62
     7
 10
45.249999999977717
 20
-51.000000000011063
 30
0.0
 11
54.749999999977717
 21
-51.000000000011063
 31
0.0
  0
LINE
  5
1C8
  8
DATA
  6
CONTINUOUS
 62
     7
 10
45.249999999977717
 20
-53.500000000011063
 30
0.0
 11
54.749999999977717
 21
-53.500000000011063
 31
0.0
  0
LINE
  5
1C9
  8
DATA
  6
CONTINUOUS
 62
     7
 10
45.249999999977717
 20
-55.500000000011063
 30
0.0
 11
54.749999999977717
 21
-55.500000000011063
 31
0.0
  0
LINE
  5
1CA
  8
DATA
  6
CONTINUOUS
 62
     7
 10
46.124999999977717
 20
-45.000000000011049
 30
0.0
 11
46.124999999977717
 21
1.4022413426056
 31
0.0
  0
LINE
  5
1CB
  8
DATA
  6
CONTINUOUS
 62
     7
 10
266.45510871354259
 20
227.9455534917671
 30
0.0
 11
305.34598167880279
 21
266.83642645702719
 31
0.0
  0
LINE
  5
1CC
  8
DATA
  6
CONTINUOUS
 62
     7
 10
53.874999999977717
 20
-45.000000000011049
 30
0.0
 11
53.874999999977717
 21
-1.8079137657858659
 31
0.0
  0
LINE
  5
1CD
  8
DATA
  6
CONTINUOUS
 62
     7
 10
271.93518626773852
 20
222.46547593757131
 30
0.0
 11
310.82605923299849
 21
261.35634890283143
 31
0.0
  0
LINE
  5
1CE
  8
DATA
  6
CONTINUOUS
 62
     7
 10
65.725171204211563
 20
28.4530528495123
 30
0.0
 11
72.442685625483804
 21
21.735538428240091
 31
0.0
  0
LINE
  5
1CF
  8
DATA
  6
CONTINUOUS
 62
     7
 10
265.83639028000448
 20
228.56427192530529
 30
0.0
 11
272.55390470127668
 21
221.84675750403309
 31
0.0
  0
LINE
  5
1D0
  8
DATA
  6
CONTINUOUS
 62
     7
 10
65.725171204211563
 20
28.4530528495123
 30
0.0
 11
265.83639028000448
 21
228.56427192530529
 31
0.0
  0
LINE
  5
1D1
  8
DATA
  6
CONTINUOUS
 62
     7
 10
72.442685625483804
 20
21.735538428240091
 30
0.0
 11
272.55390470127668
 21
221.84675750403309
 31
0.0
  0
LINE
  5
1D2
  8
DATA
  6
CONTINUOUS
 62
     7
 10
304.72726324526462
 20
267.45514489056529
 30
0.0
 11
311.44477766653682
 21
260.73763046929321
 31
0.0
  0
LINE
  5
1D3
  8
DATA
  6
CONTINUOUS
 62
     7
 10
338.49161204692228
 20
304.4014742075625
 30
0.0
 11
348.3911069835338
 21
294.50197927095081
 31
0.0
  0
LINE
  5
1D4
  8
DATA
  6
CONTINUOUS
 62
     7
 10
304.72726324526462
 20
267.45514489056529
 30
0.0
 11
311.79833105712999
 21
274.52621270243083
 31
0.0
  0
LINE
  5
1D5
  8
DATA
  6
CONTINUOUS
 62
     7
 10
311.44477766653682
 20
260.73763046929321
 30
0.0
 11
318.51584547840241
 21
267.80869828115863
 31
0.0
  0
LINE
  5
1D6
  8
DATA
  6
CONTINUOUS
 62
     7
 10
311.79833105712999
 20
274.52621270243083
 30
0.0
 11
319.96541437983427
 21
282.693296025135
 31
0.0
  0
ARC
  5
1D7
  8
DATA
  6
CONTINUOUS
 62
     7
 10
212.17167729172459
 20
379.66796423939741
 30
0.0
 40
144.99508967784661
 50
318.02444667499589
 51
323.17698560591612
  0
ARC
  5
1D8
  8
DATA
  6
CONTINUOUS
 62
     7
 10
368.26343164146959
 20
262.79859603944988
 30
0.0
 40
50.000000002473293
 50
136.9825238610843
 51
143.17698560561021
  0
LINE
  5
1D9
  8
DATA
  6
CONTINUOUS
 62
     7
 10
318.51584547840241
 20
267.80869828115863
 30
0.0
 11
326.68292880110653
 21
275.9757816038628
 31
0.0
  0
ARC
  5
1DA
  8
DATA
  6
CONTINUOUS
 62
     7
 10
423.65759701536882
 20
168.18204451575329
 30
0.0
 40
144.99508967784641
 50
126.823014394084
 51
131.97555332500411
  0
ARC
  5
1DB
  8
DATA
  6
CONTINUOUS
 62
     7
 10
306.78822881542118
 20
324.27379886549801
 30
0.0
 40
50.000000002473392
 50
306.82301439438987
 51
313.01747613891558
  0
LINE
  5
1DC
  8
DATA
  6
CONTINUOUS
 62
     7
 10
68.553598328957776
 20
31.281479974258481
 30
0.0
 11
75.271112750229975
 21
24.563965552986279
 31
0.0
  0
LINE
  5
1DD
  8
DATA
  6
CONTINUOUS
 62
     7
 10
69.967811891330854
 20
32.695693536631588
 30
0.0
 11
76.685326312603095
 21
25.978179115359389
 31
0.0
  0
LINE
  5
1DE
  8
DATA
  6
CONTINUOUS
 62
     7
 10
71.735578844297223
 20
34.463460489597928
 30
0.0
 11
78.453093265569422
 21
27.74594606832575
 31
0.0
  0
LINE
  5
1DF
  8
DATA
  6
CONTINUOUS
 62
     7
 10
73.149792406670301
 20
35.877674051971042
 30
0.0
 11
79.867306827942585
 21
29.16015963069885
 31
0.0
  0
LINE
  5
1E0
  8
DATA
  6
CONTINUOUS
 62
     7
 10
263.00796315525821
 20
225.73584480055911
 30
0.0
 11
269.72547757653052
 21
219.01833037928691
 31
0.0
  0
LINE
  5
1E1
  8
DATA
  6
CONTINUOUS
 62
     7
 10
261.5937495928851
 20
224.321631238186
 30
0.0
 11
268.3112640141573
 21
217.6041168169138
 31
0.0
  0
LINE
  5
1E2
  8
DATA
  6
CONTINUOUS
 62
     7
 10
259.82598263991878
 20
222.5538642852197
 30
0.0
 11
266.54349706119098
 21
215.8363498639475
 31
0.0
  0
LINE
  5
1E3
  8
DATA
  6
CONTINUOUS
 62
     7
 10
258.41176907754573
 20
221.1396507228466
 30
0.0
 11
265.12928349881798
 21
214.4221363015744
 31
0.0
  0
LINE
  5
1E4
  8
DATA
  6
CONTINUOUS
 62
     7
 10
307.55569037001078
 20
270.28357201531162
 30
0.0
 11
314.27320479128292
 21
263.56605759403942
 31
0.0
  0
LINE
  5
1E5
  8
DATA
  6
CONTINUOUS
 62
     7
 10
308.96990393238389
 20
271.69778557768473
 30
0.0
 11
315.68741835365603
 21
264.98027115641253
 31
0.0
  0
LINE
  5
1E6
  8
DATA
  6
CONTINUOUS
 62
     7
 10
310.73767088535021
 20
273.465552530651
 30
0.0
 11
317.45518530662241
 21
266.7480381093788
 31
0.0
  0
LINE
  5
1E7
  8
DATA
  6
CONTINUOUS
 62
     7
 10
312.15188444772332
 20
274.8797660930241
 30
0.0
 11
318.86939886899552
 21
268.1622516717519
 31
0.0
  0
LINE
  5
1E8
  8
DATA
  6
CONTINUOUS
 62
     7
 10
333.1783980236624
 20
296.56250210075262
 30
0.0
 11
340.5521348767241
 21
289.18876524769081
 31
0.0
  0
LINE
  5
1E9
  8
DATA
  6
CONTINUOUS
 62
     7
 10
331.55205242693319
 20
294.93615650402347
 30
0.0
 11
338.92578927999489
 21
287.56241965096177
 31
0.0
  0
LINE
  5
1EA
  8
DATA
  6
CONTINUOUS
 62
     7
 10
333.1783980236624
 20
296.56250210075262
 30
0.0
 11
331.55205242693319
 21
294.93615650402347
 31
0.0
  0
LINE
  5
1EB
  8
DATA
  6
CONTINUOUS
 62
     7
 10
340.5521348767241
 20
289.18876524769081
 30
0.0
 11
338.92578927999489
 21
287.56241965096177
 31
0.0
  0
LINE
  5
1EC
  8
DATA
  6
CONTINUOUS
 62
     7
 10
40.499999999977717
 20
-200.00000000001111
 30
0.0
 11
59.499999999977717
 21
-200.00000000001111
 31
0.0
  0
LINE
  5
1ED
  8
DATA
  6
CONTINUOUS
 62
     7
 10
331.70614928577908
 20
296.90966619290077
 30
0.0
 11
338.49161204692228
 21
304.4014742075625
 31
0.0
  0
LINE
  5
1EE
  8
DATA
  6
CONTINUOUS
 62
     7
 10
340.89929896887219
 20
287.7165165098076
 30
0.0
 11
348.3911069835338
 21
294.50197927095081
 31
0.0
  0
LINE
  5
1EF
  8
DATA
  6
CONTINUOUS
 62
     7
 10
46.124999999977717
 20
-45.000000000011049
 30
0.0
 11
53.874999999977717
 21
-42.602577873264217
 31
0.0
  0
LINE
  5
1F0
  8
DATA
  6
CONTINUOUS
 62
     7
 10
46.124999999977717
 20
-41.500000000011063
 30
0.0
 11
53.874999999977717
 21
-39.102577873264217
 31
0.0
  0
LINE
  5
1F1
  8
DATA
  6
CONTINUOUS
 62
     7
 10
46.124999999977717
 20
-38.000000000011049
 30
0.0
 11
53.874999999977717
 21
-35.602577873264231
 31
0.0
  0
LINE
  5
1F2
  8
DATA
  6
CONTINUOUS
 62
     7
 10
46.124999999977717
 20
-34.500000000011063
 30
0.0
 11
53.874999999977717
 21
-32.102577873264231
 31
0.0
  0
LINE
  5
1F3
  8
DATA
  6
CONTINUOUS
 62
     7
 10
46.124999999977717
 20
-31.000000000011049
 30
0.0
 11
53.874999999977717
 21
-28.602577873264231
 31
0.0
  0
LINE
  5
1F4
  8
DATA
  6
CONTINUOUS
 62
     7
 10
46.124999999977717
 20
-27.500000000011049
 30
0.0
 11
53.874999999977717
 21
-25.102577873264231
 31
0.0
  0
LINE
  5
1F5
  8
DATA
  6
CONTINUOUS
 62
     7
 10
46.124999999977717
 20
-24.000000000011049
 30
0.0
 11
53.874999999977717
 21
-21.602577873264242
 31
0.0
  0
LINE
  5
1F6
  8
DATA
  6
CONTINUOUS
 62
     7
 10
52.20175401401886
 20
13.69219879224312
 30
0.0
 11
59.377065011403971
 21
9.9073546812367326
 31
0.0
  0
LINE
  5
1F7
  8
DATA
  6
CONTINUOUS
 62
     7
 10
54.676627748171782
 20
16.167072526396041
 30
0.0
 11
61.851938745556879
 21
12.382228415389649
 31
0.0
  0
LINE
  5
1F8
  8
DATA
  6
CONTINUOUS
 62
     7
 10
57.151501482324683
 20
18.641946260548959
 30
0.0
 11
64.326812479709773
 21
14.857102149542561
 31
0.0
  0
LINE
  5
1F9
  8
DATA
  6
CONTINUOUS
 62
     7
 10
59.626375216477612
 20
21.116819994701881
 30
0.0
 11
66.801686213862709
 21
17.331975883695481
 31
0.0
  0
LINE
  5
1FA
  8
DATA
  6
CONTINUOUS
 62
     7
 10
62.10124895063052
 20
23.591693728854789
 30
0.0
 11
69.276559948015631
 21
19.806849617848389
 31
0.0
  0
LINE
  5
1FB
  8
DATA
  6
CONTINUOUS
 62
     7
 10
64.576122684783456
 20
26.066567463007711
 30
0.0
 11
71.751433682168553
 21
22.281723352001311
 31
0.0
  0
LINE
  5
1FC
  8
DATA
  6
CONTINUOUS
 62
     7
 10
266.45510871354259
 20
227.9455534917671
 30
0.0
 11
273.6304197109277
 21
224.16070938076061
 31
0.0
  0
LINE
  5
1FD
  8
DATA
  6
CONTINUOUS
 62
     7
 10
268.57642905710242
 20
230.06687383532679
 30
0.0
 11
275.75174005448741
 21
226.2820297243203
 31
0.0
  0
LINE
  5
1FE
  8
DATA
  6
CONTINUOUS
 62
     7
 10
270.69774940066202
 20
232.18819417888639
 30
0.0
 11
277.87306039804707
 21
228.40335006788001
 31
0.0
  0
LINE
  5
1FF
  8
DATA
  6
CONTINUOUS
 62
     7
 10
272.81906974422162
 20
234.30951452244599
 30
0.0
 11
279.99438074160668
 21
230.52467041143959
 31
0.0
  0
LINE
  5
200
  8
DATA
  6
CONTINUOUS
 62
     7
 10
274.94039008778128
 20
236.43083486600571
 30
0.0
 11
282.11570108516628
 21
232.64599075499919
 31
0.0
  0
LINE
  5
201
  8
DATA
  6
CONTINUOUS
 62
     7
 10
277.06171043134088
 20
238.55215520956531
 30
0.0
 11
284.237021428726
 21
234.76731109855891
 31
0.0
  0
LINE
  5
202
  8
DATA
  6
CONTINUOUS
 62
     7
 10
279.18303077490049
 20
240.67347555312489
 30
0.0
 11
286.35834177228571
 21
236.88863144211851
 31
0.0
  0
LINE
  5
203
  8
DATA
  6
CONTINUOUS
 62
     7
 10
281.3043511184602
 20
242.7947958966846
 30
0.0
 11
288.47966211584531
 21
239.0099517856782
 31
0.0
  0
LINE
  5
204
  8
DATA
  6
CONTINUOUS
 62
     7
 10
283.42567146201981
 20
244.91611624024421
 30
0.0
 11
290.60098245940492
 21
241.1312721292378
 31
0.0
  0
LINE
  5
205
  8
DATA
  6
CONTINUOUS
 62
     7
 10
285.54699180557952
 20
247.0374365838039
 30
0.0
 11
292.72230280296458
 21
243.2525924727974
 31
0.0
  0
LINE
  5
206
  8
DATA
  6
CONTINUOUS
 62
     7
 10
287.66831214913918
 20
249.15875692736361
 30
0.0
 11
294.84362314652418
 21
245.37391281635709
 31
0.0
  0
LINE
  5
207
  8
DATA
  6
CONTINUOUS
 62
     7
 10
289.78963249269867
 20
251.28007727092319
 30
0.0
 11
296.96494349008378
 21
247.49523315991669
 31
0.0
  0
LINE
  5
208
  8
DATA
  6
CONTINUOUS
 62
     7
 10
291.91095283625839
 20
253.40139761448279
 30
0.0
 11
299.0862638336435
 21
249.61655350347641
 31
0.0
  0
LINE
  5
209
  8
DATA
  6
CONTINUOUS
 62
     7
 10
294.03227317981811
 20
255.52271795804251
 30
0.0
 11
301.2075841772031
 21
251.73787384703601
 31
0.0
  0
LINE
  5
20A
  8
DATA
  6
CONTINUOUS
 62
     7
 10
296.15359352337771
 20
257.644038301602
 30
0.0
 11
303.32890452076282
 21
253.85919419059559
 31
0.0
  0
LINE
  5
20B
  8
DATA
  6
CONTINUOUS
 62
     7
 10
298.27491386693742
 20
259.76535864516171
 30
0.0
 11
305.45022486432242
 21
255.9805145341553
 31
0.0
  0
LINE
  5
20C
  8
DATA
  6
CONTINUOUS
 62
     7
 10
300.39623421049691
 20
261.88667898872131
 30
0.0
 11
307.57154520788208
 21
258.10183487771491
 31
0.0
  0
LINE
  5
20D
  8
DATA
  6
CONTINUOUS
 62
     7
 10
302.51755455405657
 20
264.00799933228097
 30
0.0
 11
309.69286555144168
 21
260.22315522127451
 31
0.0
  0
LINE
  5
20E
  8
DATA
  6
CONTINUOUS
 62
     7
 10
304.63887489761618
 20
266.12931967584069
 30
0.0
 11
307.63180255826222
 21
264.55060557756769
 31
0.0
  0
LINE
  5
20F
  8
DATA
  6
CONTINUOUS
 62
     7
 10
50.518398282179533
 20
12.00884306040383
 30
0.0
 11
66.343889637749797
 21
27.83433441597407
 31
0.0
  0
LINE
  5
210
  8
DATA
  6
CONTINUOUS
 62
     7
 10
58.268398282179518
 20
8.7986879520123704
 30
0.0
 11
71.823967191945556
 21
22.354256861778332
 31
0.0
  0
LINE
  5
211
  8
DATA
  6
CONTINUOUS
 62
     7
 10
46.124999999977717
 20
-20.50000000001106
 30
0.0
 11
53.874999999977717
 21
-18.102577873264231
 31
0.0
  0
LINE
  5
212
  8
DATA
  6
CONTINUOUS
 62
     7
 10
46.124999999977717
 20
-17.000000000011049
 30
0.0
 11
53.874999999977717
 21
-14.602577873264231
 31
0.0
  0
LINE
  5
213
  8
DATA
  6
CONTINUOUS
 62
     7
 10
46.124999999977717
 20
-13.500000000011051
 30
0.0
 11
53.874999999977717
 21
-11.102577873264231
 31
0.0
  0
LINE
  5
214
  8
DATA
  6
CONTINUOUS
 62
     7
 10
46.124999999977717
 20
-10.000000000011051
 30
0.0
 11
53.874999999977717
 21
-7.6025778732642291
 31
0.0
  0
LINE
  5
215
  8
DATA
  6
CONTINUOUS
 62
     7
 10
46.124999999977717
 20
-6.500000000011056
 30
0.0
 11
53.874999999977717
 21
-4.10257787326423
 31
0.0
  0
LINE
  5
216
  8
DATA
  6
CONTINUOUS
 62
     7
 10
46.124999999977717
 20
-3.000000000011056
 30
0.0
 11
53.874999999977717
 21
-0.6025778732642309
 31
0.0
  0
LINE
  5
217
  8
DATA
  6
CONTINUOUS
 62
     7
 10
46.124999999977717
 20
0.499999999988944
 30
0.0
 11
54.721286039853602
 21
3.15921630448485
 31
0.0
  0
ARC
  5
218
  8
DATA
  6
CONTINUOUS
 62
     7
 10
61.124999999977732
 20
1.402241342605602
 30
0.0
 40
15.0
 50
134.99999999999989
 51
180.0
  0
ARC
  5
219
  8
DATA
  6
CONTINUOUS
 62
     7
 10
68.874999999977703
 20
-1.807913765785869
 30
0.0
 40
15.0
 50
134.9999999999998
 51
180.0
  0
LINE
  5
21A
  8
DATA
  6
CONTINUOUS
 62
     7
 10
-109.5000000000223
 20
-200.00000000001111
 30
0.0
 11
-109.5000000000223
 21
-94.964581237426145
 31
0.0
  0
LINE
  5
21B
  8
DATA
  6
CONTINUOUS
 62
     7
 10
-90.500000000022283
 20
-200.00000000001111
 30
0.0
 11
-90.500000000022283
 21
-94.964581237426145
 31
0.0
  0
LINE
  5
21C
  8
DATA
  6
CONTINUOUS
 62
     7
 10
-104.7500000000223
 20
-45.000000000011049
 30
0.0
 11
-95.250000000022268
 21
-45.000000000011049
 31
0.0
  0
LINE
  5
21D
  8
DATA
  6
CONTINUOUS
 62
     7
 10
-104.7500000000223
 20
-55.000000000011063
 30
0.0
 11
-104.7500000000223
 21
-45.000000000011049
 31
0.0
  0
ARC
  5
21E
  8
DATA
  6
CONTINUOUS
 62
     7
 10
-222.0279729729933
 20
-54.824369369380712
 30
0.0
 40
117.27810448147309
 50
347.0754916853241
 51
359.91419627990967
  0
ARC
  5
21F
  8
DATA
  6
CONTINUOUS
 62
     7
 10
-20.34556851758828
 20
-100.91574166679401
 30
0.0
 40
89.604113614228197
 50
167.0595793513568
 51
171.35764532212571
  0
ARC
  5
220
  8
DATA
  6
CONTINUOUS
 62
     7
 10
-59.500000000021707
 20
-94.964581237426145
 30
0.0
 40
50.000000000000561
 50
171.35764532212579
 51
180.0
  0
LINE
  5
221
  8
DATA
  6
CONTINUOUS
 62
     7
 10
-95.250000000022268
 20
-55.000000000011063
 30
0.0
 11
-95.250000000022268
 21
-45.000000000011049
 31
0.0
  0
ARC
  5
222
  8
DATA
  6
CONTINUOUS
 62
     7
 10
22.027972972948699
 20
-54.824369369380712
 30
0.0
 40
117.27810448147309
 50
180.08580372009021
 51
192.9245083146759
  0
ARC
  5
223
  8
DATA
  6
CONTINUOUS
 62
     7
 10
-179.65443148245629
 20
-100.91574166679401
 30
0.0
 40
89.604113614228197
 50
8.6423546778743336
 51
12.940420648643149
  0
ARC
  5
224
  8
DATA
  6
CONTINUOUS
 62
     7
 10
-140.50000000002279
 20
-94.964581237426145
 30
0.0
 40
50.000000000000568
 50
0.0
 51
8.6423546778742093
  0
LINE
  5
225
  8
DATA
  6
CONTINUOUS
 62
     7
 10
-104.7500000000223
 20
-49.00000000001107
 30
0.0
 11
-95.250000000022268
 21
-49.00000000001107
 31
0.0
  0
LINE
  5
226
  8
DATA
  6
CONTINUOUS
 62
     7
 10
-104.7500000000223
 20
-51.000000000011063
 30
0.0
 11
-95.250000000022268
 21
-51.000000000011063
 31
0.0
  0
LINE
  5
227
  8
DATA
  6
CONTINUOUS
 62
     7
 10
-104.7500000000223
 20
-53.500000000011063
 30
0.0
 11
-95.250000000022268
 21
-53.500000000011063
 31
0.0
  0
LINE
  5
228
  8
DATA
  6
CONTINUOUS
 62
     7
 10
-104.7500000000223
 20
-55.500000000011063
 30
0.0
 11
-95.250000000022268
 21
-55.500000000011063
 31
0.0
  0
LINE
  5
229
  8
DATA
  6
CONTINUOUS
 62
     7
 10
-103.8750000000222
 20
-45.000000000011049
 30
0.0
 11
-103.8750000000222
 21
9.9999999999889422
 31
0.0
  0
LINE
  5
22A
  8
DATA
  6
CONTINUOUS
 62
     7
 10
-103.8750000000222
 20
292.99999999998892
 30
0.0
 11
-103.8750000000222
 21
328.91469833897719
 31
0.0
  0
LINE
  5
22B
  8
DATA
  6
CONTINUOUS
 62
     7
 10
-96.125000000022283
 20
-45.000000000011049
 30
0.0
 11
-96.125000000022283
 21
9.9999999999889422
 31
0.0
  0
LINE
  5
22C
  8
DATA
  6
CONTINUOUS
 62
     7
 10
-96.125000000022283
 20
292.99999999998892
 30
0.0
 11
-96.125000000022283
 21
325.70454323058573
 31
0.0
  0
LINE
  5
22D
  8
DATA
  6
CONTINUOUS
 62
     7
 10
-104.7500000000223
 20
9.9999999999889422
 30
0.0
 11
-95.250000000022268
 21
9.9999999999889422
 31
0.0
  0
LINE
  5
22E
  8
DATA
  6
CONTINUOUS
 62
     7
 10
-104.7500000000223
 20
292.99999999998892
 30
0.0
 11
-95.250000000022268
 21
292.99999999998892
 31
0.0
  0
LINE
  5
22F
  8
DATA
  6
CONTINUOUS
 62
     7
 10
-104.7500000000223
 20
9.9999999999889422
 30
0.0
 11
-104.7500000000223
 21
292.99999999998892
 31
0.0
  0
LINE
  5
230
  8
DATA
  6
CONTINUOUS
 62
     7
 10
-95.250000000022268
 20
9.9999999999889422
 30
0.0
 11
-95.250000000022268
 21
292.99999999998892
 31
0.0
  0
LINE
  5
231
  8
DATA
  6
CONTINUOUS
 62
     7
 10
-82.585781723759283
 20
357.65455691791311
 30
0.0
 11
-75.868267302487055
 21
350.93704249664091
 31
0.0
  0
LINE
  5
232
  8
DATA
  6
CONTINUOUS
 62
     7
 10
-48.82143292210165
 20
394.60088623491009
 30
0.0
 11
-38.92193798548999
 21
384.70139129829852
 31
0.0
  0
LINE
  5
233
  8
DATA
  6
CONTINUOUS
 62
     7
 10
-82.585781723759283
 20
357.65455691791311
 30
0.0
 11
-75.514713911893793
 21
364.72562472977847
 31
0.0
  0
LINE
  5
234
  8
DATA
  6
CONTINUOUS
 62
     7
 10
-75.868267302487055
 20
350.93704249664091
 30
0.0
 11
-68.797199490621594
 21
358.00811030850639
 31
0.0
  0
LINE
  5
235
  8
DATA
  6
CONTINUOUS
 62
     7
 10
-75.514713911893793
 20
364.72562472977847
 30
0.0
 11
-67.347630589189563
 21
372.8927080524827
 31
0.0
  0
ARC
  5
236
  8
DATA
  6
CONTINUOUS
 62
     7
 10
-175.1413676772992
 20
469.86737626674523
 30
0.0
 40
144.99508967784661
 50
318.02444667499589
 51
323.17698560591612
  0
ARC
  5
237
  8
DATA
  6
CONTINUOUS
 62
     7
 10
-19.049613327554368
 20
352.99800806679752
 30
0.0
 40
50.000000002473278
 50
136.9825238610843
 51
143.17698560561001
  0
LINE
  5
238
  8
DATA
  6
CONTINUOUS
 62
     7
 10
-68.797199490621594
 20
358.00811030850639
 30
0.0
 11
-60.630116167917379
 21
366.1751936312105
 31
0.0
  0
ARC
  5
239
  8
DATA
  6
CONTINUOUS
 62
     7
 10
36.344552046344972
 20
258.38145654310102
 30
0.0
 40
144.99508967784649
 50
126.823014394084
 51
131.97555332500411
  0
ARC
  5
23A
  8
DATA
  6
CONTINUOUS
 62
     7
 10
-80.524816153602615
 20
414.47321089284571
 30
0.0
 40
50.000000002473392
 50
306.82301439438987
 51
313.01747613891558
  0
LINE
  5
23B
  8
DATA
  6
CONTINUOUS
 62
     7
 10
-104.7500000000223
 20
13.99999999998894
 30
0.0
 11
-95.250000000022268
 21
13.99999999998894
 31
0.0
  0
LINE
  5
23C
  8
DATA
  6
CONTINUOUS
 62
     7
 10
-104.7500000000223
 20
15.99999999998894
 30
0.0
 11
-95.250000000022268
 21
15.99999999998894
 31
0.0
  0
LINE
  5
23D
  8
DATA
  6
CONTINUOUS
 62
     7
 10
-104.7500000000223
 20
18.49999999998894
 30
0.0
 11
-95.250000000022268
 21
18.49999999998894
 31
0.0
  0
LINE
  5
23E
  8
DATA
  6
CONTINUOUS
 62
     7
 10
-104.7500000000223
 20
20.49999999998894
 30
0.0
 11
-95.250000000022268
 21
20.49999999998894
 31
0.0
  0
LINE
  5
23F
  8
DATA
  6
CONTINUOUS
 62
     7
 10
-104.7500000000223
 20
288.99999999998892
 30
0.0
 11
-95.250000000022268
 21
288.99999999998892
 31
0.0
  0
LINE
  5
240
  8
DATA
  6
CONTINUOUS
 62
     7
 10
-104.7500000000223
 20
286.99999999998892
 30
0.0
 11
-95.250000000022268
 21
286.99999999998892
 31
0.0
  0
LINE
  5
241
  8
DATA
  6
CONTINUOUS
 62
     7
 10
-104.7500000000223
 20
284.49999999998892
 30
0.0
 11
-95.250000000022268
 21
284.49999999998892
 31
0.0
  0
LINE
  5
242
  8
DATA
  6
CONTINUOUS
 62
     7
 10
-104.7500000000223
 20
282.49999999998892
 30
0.0
 11
-95.250000000022268
 21
282.49999999998892
 31
0.0
  0
LINE
  5
243
  8
DATA
  6
CONTINUOUS
 62
     7
 10
-79.757354599013055
 20
360.48298404265921
 30
0.0
 11
-73.039840177740857
 21
353.76546962138713
 31
0.0
  0
LINE
  5
244
  8
DATA
  6
CONTINUOUS
 62
     7
 10
-78.343141036639963
 20
361.89719760503237
 30
0.0
 11
-71.625626615367764
 21
355.17968318376001
 31
0.0
  0
LINE
  5
245
  8
DATA
  6
CONTINUOUS
 62
     7
 10
-76.575374083673623
 20
363.66496455799881
 30
0.0
 11
-69.857859662401424
 21
356.9474501367265
 31
0.0
  0
LINE
  5
246
  8
DATA
  6
CONTINUOUS
 62
     7
 10
-75.16116052130053
 20
365.07917812037181
 30
0.0
 11
-68.443646100028303
 21
358.36166369909961
 31
0.0
  0
LINE
  5
247
  8
DATA
  6
CONTINUOUS
 62
     7
 10
-54.13464694536151
 20
386.76191412810027
 30
0.0
 11
-46.76091009229981
 21
379.38817727503852
 31
0.0
  0
LINE
  5
248
  8
DATA
  6
CONTINUOUS
 62
     7
 10
-55.760992542090648
 20
385.13556853137118
 30
0.0
 11
-48.387255689028962
 21
377.76183167830948
 31
0.0
  0
LINE
  5
249
  8
DATA
  6
CONTINUOUS
 62
     7
 10
-54.13464694536151
 20
386.76191412810027
 30
0.0
 11
-55.760992542090648
 21
385.13556853137118
 31
0.0
  0
LINE
  5
24A
  8
DATA
  6
CONTINUOUS
 62
     7
 10
-46.76091009229981
 20
379.38817727503852
 30
0.0
 11
-48.387255689028962
 21
377.76183167830948
 31
0.0
  0
LINE
  5
24B
  8
DATA
  6
CONTINUOUS
 62
     7
 10
-109.5000000000223
 20
-200.00000000001111
 30
0.0
 11
-90.500000000022283
 21
-200.00000000001111
 31
0.0
  0
LINE
  5
24C
  8
DATA
  6
CONTINUOUS
 62
     7
 10
-55.606895683244772
 20
387.10907822024848
 30
0.0
 11
-48.82143292210165
 21
394.60088623491009
 31
0.0
  0
LINE
  5
24D
  8
DATA
  6
CONTINUOUS
 62
     7
 10
-46.413746000151569
 20
377.9159285371552
 30
0.0
 11
-38.92193798548999
 21
384.70139129829852
 31
0.0
  0
LINE
  5
24E
  8
DATA
  6
CONTINUOUS
 62
     7
 10
-103.8750000000222
 20
-45.000000000011049
 30
0.0
 11
-96.125000000022283
 21
-42.602577873264217
 31
0.0
  0
LINE
  5
24F
  8
DATA
  6
CONTINUOUS
 62
     7
 10
-103.8750000000222
 20
-41.500000000011063
 30
0.0
 11
-96.125000000022283
 21
-39.102577873264217
 31
0.0
  0
LINE
  5
250
  8
DATA
  6
CONTINUOUS
 62
     7
 10
-103.8750000000222
 20
-38.000000000011049
 30
0.0
 11
-96.125000000022283
 21
-35.602577873264231
 31
0.0
  0
LINE
  5
251
  8
DATA
  6
CONTINUOUS
 62
     7
 10
-103.8750000000222
 20
-34.500000000011063
 30
0.0
 11
-96.125000000022283
 21
-32.102577873264231
 31
0.0
  0
LINE
  5
252
  8
DATA
  6
CONTINUOUS
 62
     7
 10
-103.8750000000222
 20
-31.000000000011049
 30
0.0
 11
-96.125000000022283
 21
-28.602577873264231
 31
0.0
  0
LINE
  5
253
  8
DATA
  6
CONTINUOUS
 62
     7
 10
-103.8750000000222
 20
-27.500000000011049
 30
0.0
 11
-96.125000000022283
 21
-25.102577873264231
 31
0.0
  0
LINE
  5
254
  8
DATA
  6
CONTINUOUS
 62
     7
 10
-103.8750000000222
 20
-24.000000000011049
 30
0.0
 11
-96.125000000022283
 21
-21.602577873264242
 31
0.0
  0
LINE
  5
255
  8
DATA
  6
CONTINUOUS
 62
     7
 10
-103.8750000000222
 20
-20.50000000001106
 30
0.0
 11
-96.125000000022283
 21
-18.102577873264231
 31
0.0
  0
LINE
  5
256
  8
DATA
  6
CONTINUOUS
 62
     7
 10
-103.8750000000222
 20
-17.000000000011049
 30
0.0
 11
-96.125000000022283
 21
-14.602577873264231
 31
0.0
  0
LINE
  5
257
  8
DATA
  6
CONTINUOUS
 62
     7
 10
-103.8750000000222
 20
-13.500000000011051
 30
0.0
 11
-96.125000000022283
 21
-11.102577873264231
 31
0.0
  0
LINE
  5
258
  8
DATA
  6
CONTINUOUS
 62
     7
 10
-103.8750000000222
 20
-10.000000000011051
 30
0.0
 11
-96.125000000022283
 21
-7.6025778732642291
 31
0.0
  0
LINE
  5
259
  8
DATA
  6
CONTINUOUS
 62
     7
 10
-103.8750000000222
 20
-6.500000000011056
 30
0.0
 11
-96.125000000022283
 21
-4.10257787326423
 31
0.0
  0
LINE
  5
25A
  8
DATA
  6
CONTINUOUS
 62
     7
 10
-103.8750000000222
 20
-3.000000000011056
 30
0.0
 11
-96.125000000022283
 21
-0.6025778732642309
 31
0.0
  0
LINE
  5
25B
  8
DATA
  6
CONTINUOUS
 62
     7
 10
-103.8750000000222
 20
0.499999999988944
 30
0.0
 11
-96.125000000022283
 21
2.8974221267357678
 31
0.0
  0
LINE
  5
25C
  8
DATA
  6
CONTINUOUS
 62
     7
 10
-103.8750000000222
 20
3.9999999999889431
 30
0.0
 11
-96.125000000022283
 21
6.3974221267357692
 31
0.0
  0
LINE
  5
25D
  8
DATA
  6
CONTINUOUS
 62
     7
 10
-103.8750000000222
 20
7.4999999999889431
 30
0.0
 11
-96.125000000022283
 21
9.8974221267357674
 31
0.0
  0
LINE
  5
25E
  8
DATA
  6
CONTINUOUS
 62
     7
 10
-103.8750000000222
 20
292.99999999998892
 30
0.0
 11
-96.125000000022283
 21
295.39742212673582
 31
0.0
  0
LINE
  5
25F
  8
DATA
  6
CONTINUOUS
 62
     7
 10
-103.8750000000222
 20
295.99999999998892
 30
0.0
 11
-96.125000000022283
 21
298.39742212673582
 31
0.0
  0
LINE
  5
260
  8
DATA
  6
CONTINUOUS
 62
     7
 10
-103.8750000000222
 20
298.99999999998892
 30
0.0
 11
-96.125000000022283
 21
301.39742212673571
 31
0.0
  0
LINE
  5
261
  8
DATA
  6
CONTINUOUS
 62
     7
 10
-103.8750000000222
 20
301.99999999998892
 30
0.0
 11
-96.125000000022283
 21
304.39742212673582
 31
0.0
  0
LINE
  5
262
  8
DATA
  6
CONTINUOUS
 62
     7
 10
-103.8750000000222
 20
304.99999999998892
 30
0.0
 11
-96.125000000022283
 21
307.39742212673571
 31
0.0
  0
LINE
  5
263
  8
DATA
  6
CONTINUOUS
 62
     7
 10
-103.8750000000222
 20
307.99999999998892
 30
0.0
 11
-96.125000000022283
 21
310.39742212673582
 31
0.0
  0
LINE
  5
264
  8
DATA
  6
CONTINUOUS
 62
     7
 10
-103.8750000000222
 20
310.99999999998892
 30
0.0
 11
-96.125000000022283
 21
313.39742212673582
 31
0.0
  0
LINE
  5
265
  8
DATA
  6
CONTINUOUS
 62
     7
 10
-103.8750000000222
 20
313.99999999998892
 30
0.0
 11
-96.125000000022283
 21
316.39742212673582
 31
0.0
  0
LINE
  5
266
  8
DATA
  6
CONTINUOUS
 62
     7
 10
-93.280771789205801
 20
345.7221299853901
 30
0.0
 11
-86.105460791820732
 21
341.93728587438369
 31
0.0
  0
LINE
  5
267
  8
DATA
  6
CONTINUOUS
 62
     7
 10
-91.159451445646127
 20
347.84345032894959
 30
0.0
 11
-83.984140448261087
 21
344.05860621794329
 31
0.0
  0
LINE
  5
268
  8
DATA
  6
CONTINUOUS
 62
     7
 10
-89.038131102086524
 20
349.9647706725093
 30
0.0
 11
-81.862820104701413
 21
346.1799265615029
 31
0.0
  0
LINE
  5
269
  8
DATA
  6
CONTINUOUS
 62
     7
 10
-86.916810758526879
 20
352.08609101606902
 30
0.0
 11
-79.741499761141753
 21
348.30124690506261
 31
0.0
  0
LINE
  5
26A
  8
DATA
  6
CONTINUOUS
 62
     7
 10
-84.795490414967219
 20
354.20741135962868
 30
0.0
 11
-77.620179417582165
 21
350.42256724862227
 31
0.0
  0
LINE
  5
26B
  8
DATA
  6
CONTINUOUS
 62
     7
 10
-82.674170071407573
 20
356.3287317031884
 30
0.0
 11
-79.681242410761683
 21
354.75001760491551
 31
0.0
  0
LINE
  5
26C
  8
DATA
  6
CONTINUOUS
 62
     7
 10
-99.481601717820496
 20
339.52130005677537
 30
0.0
 11
-81.96706329022102
 21
357.03583848437489
 31
0.0
  0
LINE
  5
26D
  8
DATA
  6
CONTINUOUS
 62
     7
 10
-91.731601717820496
 20
336.31114494838403
 30
0.0
 11
-76.486985736025289
 21
351.55576093017908
 31
0.0
  0
ARC
  5
26E
  8
DATA
  6
CONTINUOUS
 62
     7
 10
-81.125000000022254
 20
325.70454323058573
 30
0.0
 40
14.99999999999998
 50
135.00000000000011
 51
180.0000000000002
  0
ARC
  5
26F
  8
DATA
  6
CONTINUOUS
 62
     7
 10
-88.875000000022254
 20
328.91469833897719
 30
0.0
 40
15.00000000000002
 50
134.99999999999989
 51
180.0
  0
LINE
  5
270
  8
DATA
  6
CONTINUOUS
 62
     7
 10
-103.8750000000222
 20
316.99999999998892
 30
0.0
 11
-96.125000000022283
 21
319.39742212673582
 31
0.0
  0
LINE
  5
271
  8
DATA
  6
CONTINUOUS
 62
     7
 10
-103.8750000000222
 20
319.99999999998892
 30
0.0
 11
-96.125000000022283
 21
322.39742212673582
 31
0.0
  0
LINE
  5
272
  8
DATA
  6
CONTINUOUS
 62
     7
 10
-103.8750000000222
 20
322.99999999998892
 30
0.0
 11
-96.125000000022283
 21
325.39742212673582
 31
0.0
  0
LINE
  5
273
  8
DATA
  6
CONTINUOUS
 62
     7
 10
-103.8750000000222
 20
325.99999999998892
 30
0.0
 11
-95.866482389219854
 21
328.47739320290242
 31
0.0
  0
LINE
  5
274
  8
DATA
  6
CONTINUOUS
 62
     7
 10
-95.520845077083123
 20
343.48205669751269
 30
0.0
 11
-88.572385167780766
 21
339.4703614984237
 31
0.0
  0
LINE
  5
275
  8
DATA
  6
CONTINUOUS
 62
     7
 10
-98.285556508786087
 20
340.71734526580968
 30
0.0
 11
-91.337096599483715
 21
336.70565006672069
 31
0.0
  0
LINE
  5
276
  8
DATA
  6
CONTINUOUS
 62
     7
 10
-360.0
 20
-620.0
 30
0.0
 11
-240.0
 21
-620.0
 31
0.0
  0
ENDSEC
  0
EOF
